Song name
# A B C D E F G H I J K L M N O P Q R S T U V W X Y Z

Alarm - Spirit Of 76 tab

 Tabbed by Topiarydog2
                                  SPIRIT OF'76
                           As recorded by Mike Peters 
                  (From the 1997 Album ACOUSTIC WORKS '81-'86)

  Gtr I (Eb Ab Db Gb Bb Eb) - 'Takamine 6 string'
  G           G/B Csus2              G           G/B Csus2
 4/4
  Gtr I
                                                                     x4          
|---------0---------------0-------||----------0---------------0--------||-|
|-----3-----3---------3-----3---3-||o-----3-----3---------3-----3---3-o||-|
|---0---0-------0---0---0-----0---||----0---0-------0---0---0-----0----||-|
|---------------------------------||-----------------------------------||-|
|-------------2---3---------------||o-------------2---3---------------o||-|
|-3-------------------------------||--3--------------------------------||-|

  Dsus2                               G           G/B Csus2
                                                                     x3
|---------0---------------0-------||----------0---------------0--------||--|
|-----3-----3---3-----3-----3---3-||o-----3-----3---------3-----3---3-o||--|
|---2---------2-----2---------2---||----0---0-------0---0---0-----0----||--|
|-0-----0---------0-----0---------||-----------------------------------||--|
|---------------------------------||o-------------2---3---------------o||--|
|---------------------------------||--3--------------------------------||--|

  Dsus2                               Em             G
 
|---------0---------------0-------||---------0---------------0-------|-|
|-----3-----3---3-----3-----3-----||-----------0---------------3-----|-|
|---2---------2-----2-------------||-----0---------0-----0---------0-|-|
|-0-----0---------0-----0---------||---2---------------0-------------|-|
|---------------------------------||---------------------------------|-|
|-----------------------------3-2-||-0-----0-----2---3-----3-----3---|-|

  Dsus2                            Am               C
|---------0---------------0-------|---------0---------------3---------|
|-----3-----3---3-----3-----3-----|-----------1---------------1---3---|
|---2---------2-----2-------------|-----2---------0-----0-------------|
|-0-----0---------0-----0---------|---2---------------2---------0-----|
|-----------------------------3-2-|-0-----0-----2---3-----3-----------|
|---------------------------------|-----------------------------------|

  Em              C                 D
|---------0---------------0-------|---------0---------------0-------||--|
|-----------0---------------1-----|-----3-----3---3-----3-----3---3-||--|
|-----0---------0-----0---------0-|---2---------2-----2---------2---||--|
|---2---------2-----2-------------|-0-----0---------0-----0---------||--|
|-----------------3-----3-----3---|---------------------------------||--|
|-0-----0-------------------------|---------------------------------||--|

  G       D/F#    Cadd9   Em        G       D/F#    Cadd9   D
|---------------------------------|-------------------------------0---|
|-------3-------3-------3-------0-|-------3-------3-------3-----3-----|
|-----0-------0-------0-------0---|-----0-------0-------0-----2-------|
|---0-------0-------2-------2-----|---0-------0-------2-----0---------|
|-----------------3---------------|-----------------3-----------------|
|-3-------2---------------0-------|-3-------2-------------------------|

  G       C       D       Em       G        C       D       Em
|-----------------------0---------|-----------------------0-----------|
|-------0-------0-----3---------0-|-------0-------1-----3---------0---|
|-----0-------0-----2---------0---|-----0-------0-----2---------0-----|
|---0-------2-----0---------2-----|---0-------2-----0---------2-------|
|-2-------3-----------------------|-2-------3-------------------------|
|-------------------------0-------|-------------------------0---------|

  Cmaj7
|-------------------|----|
|---0---------------|----|
|---0---------------|----|
|---2---------------|----|
|-3-3---------------|----|
|-------------------|----|

2nd Verse:- Repeat above tabs
After second verse and chorus play  G   D/F#   Em(let ring) 

Mersey lights sh(C)ine in the distance sa(D)me as they did
for us th(Em)en     open D string h.o.to 2nd fret then open G string
Me(G)rsey lights shine br(C)ight in the distance  wh(Bm)ere
are you now my fr(Em)r.p.)iend 
You see
some nights.....
|-----0-------0-------0-------0---|-----0-------0-------0-------0-----|
|---3---3---3---3---3---3---3---3-|---3---3---3---3---3---3---3---3---|
|-0-------0-------0-------0-------|-2-------2-------2-------2---------|
|---------------------------------|-----------------------------------|
|---------------------------------|-----------------------------------|
|---------------------------------|-----------------------------------|

|-----0-------0-------0-------0---|-----0-------0-------0-------0-----|
|---1---1---1---1---1---1---1---1-|---0---0---0---0---0---0---0---0---|
|-2-------2-------2-------2-------|-0-------0-------0-------0---------|
|---------------------------------|-----------------------------------|
|---------------------------------|-----------------------------------|
|---------------------------------|-----------------------------------|

|-----0-------0-------0-------0---|-----0-------0-------0-------0-----|
|---2---2---2---2---2---2---2---2-|---0---0---0---0---1---1---1---1---|
|-2-------2-------2-------2-------|-0-------0-------0-------0---------|
|---------------------------------|-----------------------------------|
|---------------------------------|-----------------------------------|
|---------------------------------|-----------------------------------|

|---------0---------------0-------|----|
|-----3-----3---------3-----3---3-|----|
|---0---0-------0---0---0-----0---|----|
|---------------------------------|----|
|-------------2---3---------------|----|
|-3-------------------------------|----|

Final verse :-repeat tabs from the top

plaese rate/comment
Tap to rate this tab
# A B C D E F G H I J K L M N O P Q R S T U V W X Y Z