Song name
# A B C D E F G H I J K L M N O P Q R S T U V W X Y Z

Alarmsignal - Moderne Sklaverei tab

!Das sind nur die Griffe!
Wie ihr das spielt müsst ihr raushören sry.
(0:00-0:51)
|--------------|
|--------------|
|-----7-----5--|
|--5--7--2--5--|
|--5--5--2--3--|
|--3-----0-----|

(0:52-Ende)
|--------------|
|--------------|
|-----7-----5--|
|--5--7--7--5--|
|--5--5--7--3--|
|--3-----5-----|

Viel Spaß

http://www.myspace.de/alarmsignalpunk
Tap to rate this tab
# A B C D E F G H I J K L M N O P Q R S T U V W X Y Z