Song name
# A B C D E F G H I J K L M N O P Q R S T U V W X Y Z

Alarmsignal - Wir Leben tab

Alarmsignal - Wir leben

Intro:
e:|----------------------------------------------------------------|
B:|----------------------------------------------------------------|
G:|----------------------------------------------------------------|
D:|--9-9---------5-5---------7-7---------4-4-4---------------------|
A:|--9-9-9-9-7-5-5-5-5-5-3-5-7-7-7-7-5-3-4-4-4-5-3-2---------------|
E:|--7-7---------3-3---------5-5---------2-2-2---------------------|

Verse:
e:|---------------------------------------|
B:|---------------------------------------|
G:|---------------------------------------|
D:|--9-9-9-9-5-5-5-5-7-7-7-7-4-4-5-5------|
A:|--9-9-9-9-5-5-5-5-7-7-7-7-4-4-5-5------|
E:|--7-7-7-7-3-3-3-3-5-5-5-5-2-2-3-3------|

Refrain:
e:|------------------------------------------------------------------|
B:|------------------------------------------------------------------|
G:|------------------7-7-7-7-----------------------------------------|
D:|--9-9-9-9-5-5-5-5-7-7-7-7-7-7-7-7---------------------------------|
A:|--9-9-9-9-5-5-5-5-5-5-5-5-7-7-7-7---------------------------------|
E:|--7-7-7-7-3-3-3-3---------5-5-5-5---------------------------------|

Viel Spaß! ;-)
Tap to rate this tab
# A B C D E F G H I J K L M N O P Q R S T U V W X Y Z