Song name
# A B C D E F G H I J K L M N O P Q R S T U V W X Y Z

Alastar - Chaos tab

CHAOS

NOTE: Due to the funky drum beats and accents, you'll need to listen to the song for the 
timing.  Otherwise, this is pretty darn close to the real thing.

>>INTRO
|----------------------------|----------------------------|
|----------------------------|----------------------------|
|-13-------------------------|-13-------------------------|
|------11---13---------------|------11---13----14---14----|
|----------------------13~~~~|----------------------------|
|-----------------12---------|----------------------------|

>>VERSE
|-----------------------|
|---5-----5-----5-----5-|
|-6-----6-----6-----6---|
|-----------------------|
|-----------------------|
|-----------------------|

>>CHORUS
|-7---7---7-7-7---|-7---7---7-7-7---|-7---7---7-7-7-7-|---7-7---7---7---|
|-7---7---7-7-7---|-7---7---7-7-7---|-7---7---7-7-7-7-|---7-7---7---7---|
|-6---6---6-6-6---|-4---4---4-4-4---|-6---6---6-6-6-6-|---6-6---6---6---|
|-6---6---6-6-6---|-4---4---4-4-4---|-6---6---6-6-6-6-|---6-6---6---6---|
|-0---0---0-0-0---|-4---4---4-4-4---|-4---4---4-4-4-4-|---4-4---4---4---|
|-0---0---0-0-0---|-----------------|-4---4---4-4-4-4-|---4-4---4---4---|

>>BRIDGE
|-------------------|-------------------|-------------------|-------------------|
|-------------------|-------------------|-------------------|-12-/-14-----------|
|-13/16~~~~~~~~~~~--|-16\13~~~~~~~~~~---|-13/16~~~~~~~~~~~--|-11-/-13-----------|
|-------------------|-------------------|-------------------|-13-/-15-----------|
|-------------------|-------------------|-------------------|-------------------|
|-------------------|-------------------|-------------------|-------------------|

>>OUTRO
|-------------------|-------------------|-------------------|-------------------|
|-4-----------------|-5-----------------|-4-----------------|-------------------|
|-6-----------------|-6-----------------|-6-----------------|-6-----------------|
|-6-----------------|-6-----------------|-6-----------------|-6-----------------|
|-------------------|-------------------|-------------------|-4-----------------|
|-------------------|-------------------|-------------------|-------------------|

>> SONG SEQUENCE <<
INTRO 	x2
VERSE 	x8
CHORUS 	x2
VERSE 	x8
CHORUS 	x4
BRIDGE 	x2
CHORUS 	x2
INTRO	x4
OUTRO	x4
Tap to rate this tab
# A B C D E F G H I J K L M N O P Q R S T U V W X Y Z