Song name
# A B C D E F G H I J K L M N O P Q R S T U V W X Y Z

Albatross - Khase Ka Tara tab

Albatross
Khaseka Tara
niteshs200@gmail.com

Tuning EADGBE

Intro:

E-----------------------------|---------------------------------|
B------3-----3------3------3--|------7-----7-------7---8---7--5-|
G------------------------0---3|--------------------------9------|
D-----------------------------|---------------------------------|
A---3-----3-----3-3----3------|---7-----7-----7-7---------------|
E-----------------------------|---------------------------------| x2

Verse:

E-----------------------------|---------------------------------|
B------3-----3------3------3--|------7-----7-------7---8---7--5-|
G------------------------0---3|--------------------------9------|
D-----------------------------|---------------------------------|
A---3-----3-----3-3----3------|---7-----7-----7-7---------------|
E-----------------------------|---------------------------------| x2

E----------------0-------0----|----------------0-------0------|
B------3-----3-----3---3---3--|------3-----3-----3---3---3----|
G--------------------2-------2|--------------------2-------2--|
D---0-----0-------------------|-------------------------------|
A-----------------------------|---3-----3---------------------|
E-----------------------------|-------------------------------| x2

E---------7---5---------7---5----------|----------7---5----3--3----5------------|
B---------7---5---------7---5----10p8--|----------7---5----3--3----5------5h7p5-|
G-----9-------------9-----------------9|-------9-----------5--5----7--2h4-------|
D--------------------------------------|----------------------------------------|
A--------------------------------------|----------------------------------------|
E---0-------------0--------------------|----0-----------------------------------|

E---------7---5---------7---5--|----------7---5----3--3----5--|
B---------7---5---------7---5--|----------7---5----3--3----5--|
G-----9-------------9----------|------9------------5--5----7--|
D------------------------------|------------------------------|
A------------------------------|------------------------------|
E---0-------------0------------|---0--------------------------| x2


Pre-chorus:



E------------0-------------0--|-------0-----0-----0--|
B-------0------0---0---------0|---------0-----0-----0|
G---------0------0---0--------|---5-------5-----5----|
D---7-------7----------7------|---5------------------|
A---7--------------------7----|---3------------------|
E---5-------------------------|----------------------|


E------------0-------------0--|------0-----0-----0---|
B-------0------0---0---------0|--------0-----0-----0-|
G---------0------0---0--------|---7------7-----7-----|
D---7-------7----------7------|---7------------------|
A---7--------------------7----|---5------------------|
E---5-------------------------|----------------------|



Chorus:


E---------------------------------------|
B---------------------------------------|
G---5--5-5-5/7--7-7-7------------7-7-7--|
D---5--5-5-5/7--7-7-7--9--9-9--9-7-7-7--|
A---3--3-3-3/5--5-5-5--9--9-9--9-5-5-5--|
E----------------------7--7-7--7--------| x4


Verse 2:

E---------7---5---------7---5----------|----------7---5----3--3----5------------|
B---------7---5---------7---5----10p8--|----------7---5----3--3----5------5h7p5-|
G-----9-------------9-----------------9|-------9-----------5--5----7--2h4-------|
D--------------------------------------|----------------------------------------|
A--------------------------------------|----------------------------------------|
E---0-------------0--------------------|----0-----------------------------------|

E---------7---5---------7---5--|----------7---5----3--3----5--|
B---------7---5---------7---5--|----------7---5----3--3----5--|
G-----9-------------9----------|------9------------5--5----7--|
D------------------------------|------------------------------|
A------------------------------|------------------------------|
E---0-------------0------------|---0--------------------------| x2



Pre-chorus:


E------------0-------------0--|-------0-----0-----0--|
B-------0------0---0---------0|---------0-----0-----0|
G---------0------0---0--------|---5-------5-----5----|
D---7-------7----------7------|---5------------------|
A---7--------------------7----|---3------------------|
E---5-------------------------|----------------------|


E------------0-------------0--|------0-----0-----0---|
B-------0------0---0---------0|--------0-----0-----0-|
G---------0------0---0--------|---7------7-----7-----|
D---7-------7----------7------|---7------------------|
A---7--------------------7----|---5------------------|
E---5-------------------------|----------------------|



Chorus:


E---------------------------------------|
B---------------------------------------|
G---5--5-5-5/7--7-7-7------------7-7-7--|
D---5--5-5-5/7--7-7-7--9--9-9--9-7-7-7--|
A---3--3-3-3/5--5-5-5--9--9-9--9-5-5-5--|
E----------------------7--7-7--7--------| x4

Break (distorted):


E---------------------------------------------------------|
B---------------------------------------------------------|
G----------------------------------------------7-------4--|
D---9-9---11-11---12-12---11-11---9--7--------------------|
A---7-7---9--9----10-10---9--9----7--5---0-5-7---0-5-7----|
E---------------------------------------------------------| x4

Solo:

E|-------------------------------------------------------|
B|--17-15--12--------------------------------------------|
G|----------------16--14--12-----------------------------|
D|-----------------------------14--12--14----------------|
A|-------------------------------------------------------|
E|-------------------------------------------------------|

E|-------------------------------------------------------|
B|-------------------------------------------------------|
G|--12---------------------------------------------------|
D|------14--12-------------------------------------------|
A|--------------14--13--12--10--12--10-------------------|
E|--------------------------------------12--10\12v-------|

E|-------------------------------------------------------|
B|-----------------------------12------------------12----|
G|------------------12--14/16------15p14p12h14h15--------|
D|----------12--14---------------------------------------|
A|--12--14-----------------------------------------------|
E|-------------------------------------------------------|

E|-------------------------------------------------------|
B|------------------12------------------12---------------|
G|--15p14p12h14h15------15p14p12h14h15-----15p14p12------|
D|-------------------------------------------------------|
A|-------------------------------------------------------|
E|-------------------------------------------------------|

E|----------------------------------------------------------|
B|--15/17v---17/19v-----------------------------------------|
G|----------------------------------------------------------|
D|----------------------------------------------------------|
A|----------------------------------------------------------|
E|----------------------------------------------------------|

E|--15/17--15--12---------12-----------------------------|
B|-----------------15/17------15--12--11-12-11----11-----|
G|---------------------------------------------14----12--|
D|-------------------------------------------------------|
A|-------------------------------------------------------|
E|-------------------------------------------------------|

E|-------------------------------------------------------|
B|-------------------------------------------------------|
G|--14-12--12-11--11-12--11h12p11-11--------12--14--12---|
D|-----------------------------------12--14--------------|
A|-------------------------------------------------------|
E|-------------------------------------------------------|

E|-------------------------------------------------------|
B|---------15-15-15\17--17-15-17b19v--15/12-12h15-15v----|
G|--14\16------------------------------------------------|
D|-------------------------------------------------------|
A|-------------------------------------------------------|
E|-------------------------------------------------------|

E|-------------------------------------------------------|
B|--15\17v-----------------------------------------------|
G|-------------------------------------------------------|
D|-------------------------------------------------------|
A|-------------------------------------------------------|
E|-------------------------------------------------------|


Chorus:

E---------------------------------------|
B---------------------------------------|
G---5--5-5-5/7--7-7-7------------7-7-7--|
D---5--5-5-5/7--7-7-7--9--9-9--9-7-7-7--|
A---3--3-3-3/5--5-5-5--9--9-9--9-5-5-5--|
E----------------------7--7-7--7--------| x4


lyrics


timi bhanda dherai maya
kaslay garna sakcha ra?
timi jasto jhutho kassam
kasle khana sakchha ra?
herana nahera malai...
jalauna malai
eklo nai chhu ma aaja
eklai ramauna deu
ekant ko sunyata ma aansu khasalna deu
jeevan ko yo goreto ma farki tehi puge
jeevan yo k ho k ho
nabujhi bahulai rahe ma
timi bina ma
jalauna malai!!
khaseka tara gandai
timilai nai maagi base
khaseka tara gandai
timilai nai maagi base
khaseka tara gandai
timilai nai maagi base
raata biteko chalai payeena!!!

aaja feri yaad aayo..bhanna lai kohi chhaina
chhadera jana pani manle yo mandaina
janu chha dherai tadha farki aaune kahile
hridaya ma chhodidinchhu
samhali rakhi deuna
timi bina ma
jalauna malai
khaseka tara gandai
]timi lai nai maagi base
khaseka tara gandai
timi lai nai maagi base
khaseka tara gandai
timi lai nai maagi base
raata biteko chalai payeena!!!

khaseka tara gandai
timi lai nai maagi base
khaseka tara gandai
timi lai nai maagi base
khaseka tara gandai
timi lai nai maagi base
raata biteko chalai payeena!!!
Tap to rate this tab
# A B C D E F G H I J K L M N O P Q R S T U V W X Y Z