Song name
# A B C D E F G H I J K L M N O P Q R S T U V W X Y Z

Albert Hammond Jr - The Boss Americana tab

-------------------------------------------------------------------------------
			     The Boss Americana - Albert Hammond Jr.
-------------------------------------------------------------------------------
Tabbed by: Nasser O

Tuning: Standard

Intro/Verse


e|---------------------------------------------------------------------------------------|
B|---------------------------------------------------------------------------------------|
G|---10---9---7---9---10---9---7---9----\-12----10----9----10----12----10----9----10-----|
D|------8---8---8---8----8---8---8---8---\---10----10---10----10----10----10---10----10--|
A|---------------------------------------------------------------------------------------|
E|---------------------------------------------------------------------------------------|
					Listen to song for strumming
e|--------------------------------------------------------------------------------|
B|--------------------------------------------------------------------------------|
G|---10---9---7---9---10---9---7---9----\-12----10----9----10----12----10----9----|
D|------8---8---8---8----8---8---8---8---\---10----10---10----10----10----10---10-|
A|--------------------------------------------------------------------------------|
E|--------------------------------------------------------------------------------|

-------------------------|
-------------------------|
10----10----10----10-----|
---10----10----10----10--|
-------------------------|
-------------------------|

Chorus:
   00:20 - 00:38                00:39 - 00:49 Listen to song for timing and strumming
e|-----8-----------------------------------------|
B|-----8-----------------------------------------|
G|-----9----10-----9-----7---   -10-----9-----7--|
D|----10----10-----9-----7---   -10-----7-----7--|
A|----10-----8-----7-----5---   -8------7-----5--|
E|-----8-----------------------------------------|

    00:50 - 01:03		01:04 - 01:08
e|-----8---------------------------------------------------|
B|-----8---------------------------------------------------|
G|-----9----10-----9-----7---   -12-----11-----9-----------|
D|----10----10-----9-----7---   -12-----11-----9-----------|
A|----10-----8-----7-----5---   -10------9-----7-----------|
E|-----8---------------------------------------------------|

Finish with a C Chord   e|----8----|
            B|----8----------------|
            G|----9----------------|
            D|---10----------------|
            A|---10----------------|
            E|----8----------------|


Listen to song for timing and strumming this a rough tab some parts maybe wrong.

Intro/Verse  00:00 - 00:20
Chorus       00:20 - 01:08
Verse        01:08 - 01:35
Chorus       01:36 - 02:23
Verse        02:24 - 02:52
Final Chord strum to end

| \  slide down

===============================================================================
Tap to rate this tab
# A B C D E F G H I J K L M N O P Q R S T U V W X Y Z