Song name
# A B C D E F G H I J K L M N O P Q R S T U V W X Y Z

Albert Hammond Jr - Bargain Of The Century tab

Band/artist: Albert hammond, Jr.
Song: Bargain of the Century
Album: ¿Como Te Llama?
Tabbed by: Jedichewy
Tuning: Standard
*NOTES: There are the main riffs for guitar. I'm just going to lay out the tab as far as 
goes... Listen to the song to get a better feel.
*** I've updated some riff corrections.. ***
¡Enjoy!

Intro: (you know what to do...) play as needed

e|----------------------------------------------------------|
B|----------------------------------------------------------|
G|----------------------------------------------------------|
D|----------------------------------------------------------|
A|--o-o-o-o-o-----------------------------------------------|
E|----------------------------------------------------------|

MAIN RIFF

e|---5--5--5--5--5--5--5--5-----4--4--4--4--4--4--4--4-----------------|
B|---5--5--5--5--5--5--5--5-----5--5--5--5--5--5--5--5-----------------|
G|---6--6--6--6--6--6--6--6-----6--6--6--6--6--6--6--6-----------------|
D|---7--7--7--7--7--7--7--7-----6--6--6--6--6--6--6--6-----------------|
A|---7--7--7--7--7--7--7--7-----4--4--4--4--4--4--4--4-----------------|
E|---5--5--5--5--5--5--5--5--------------------------------------------|

e|---2--2--2--2--2--2--2--2-----4--4--4--4--4--4--4--4--------------|
B|---2--2--2--2--2--2--2--2-----4--4--4--4--4--4--4--4--------------|
G|---2--2--2--2--2--2--2--2-----4--4--4--4--4--4--4--4--------------|
D|---4--4--4--4--4--4--4--4-----6--6--6--6--6--6--6--6--------------|
A|---4--4--4--4--4--4--4--4-----6--6--6--6--6--6--6--6--------------|
E|---2--2--2--2--2--2--2--2-----4--4--4--4--4--4--4--4--------------|

You play this part for a long time (X32) 8 measures
(And this is how it ends too..)
    -------------------------------------------------------------|>
e|---4---4---4---4-----------------------------------------------|
B|---5---5---5---5-----------------------------------------------|
G|---6---6---6---6-----------------------------------------------|
D|---6---6---6---6-----------------------------------------------|
A|---4---4---4---4-----------------------------------------------|
E|---------------------------------------------------------------|

SOLO GUITAR: (while main riff is playing)
Low part
e|-------------------------------------------------------------------------|
B|-------------------------------------------------------------------------|
G|-------------------------------------------------------------------------|
D|-7-----7--6-----6--4--7--4-----6-----------------------------------------|
A|----4--------4--------------7-----7--4----7----4----4-7-4----4----7----4-|
E|-------------------------------------------------------------------------|

e|-----------|
B|-----------|
G|-----------|
D|-----------|
A|--4-7-4----|
E|-----------|

SOLO GUITAR: (while main riff is playing)
High part
e|------------------------------------------------------------------|
B|------------------------------------------------------------------|
G|-14------14--13------13--11--14--11------13-----------------------|
D|-----11----------11------------------14------14--11----14----11---|
A|------------------------------------------------------------------|
E|------------------------------------------------------------------|

e|-------------------------------------------|
B|-------------------------------------------| Both low and high
G|-11-14-11----11----14----11----11-14-11----| solo parts end this way
D|-------------------------------------------| as well.
A|-------------------------------------------|
E|-------------------------------------------|

SECOND RIFF
(when he starts to sing and when the cool solo comes in...)
 --------> strum as needed or just listen to the song

        "It's been it's been such a long time....
e|------------------------------------5-------------------|
B|--7---------------------------------5-------------------|
G|--7---------------------------------6-------------------|
D|--7---------------------------------7-------------------|
A|--5---------------------------------7-------------------|
E|------------------------------------5-------------------|

          since I've been asking for...
e|-------------------------------7----------------------------|
B|--9----------------------------7----------------------------|
G|--9----------------------------7----------------------------|
D|--9----------------------------9----------------------------|
A|--7----------------------------9----------------------------|
E|-------------------------------7----------------------------|

Repeat for second verses and so on and so forth.

I don't have the solo for you. Sorry!

Feedback? just say so!
Tap to rate this tab
# A B C D E F G H I J K L M N O P Q R S T U V W X Y Z