Song name
# A B C D E F G H I J K L M N O P Q R S T U V W X Y Z

Albert Hammond Jr - Rocket tab

-------------------------------------------------------------------------------
			     Rocket - Albert Hammond Jr.
-------------------------------------------------------------------------------
Tabbed by: Nasser O

Tuning:Standard

Listen to song for strumming pattern and chord changes.

Intro/Verse  00:00 - 01:11
     G	   Em
e|---3---------------|
B|---3---------------|
G|---4---------------|
D|---5------2--------|
A|---5------2--------|
E|---3------0--------|

Chorus   01:12 - 01:39
     C	   G	 D
e|---8-----3-----10---|
B|---8-----3-----10---|
G|---9-----4-----11---|
D|--10-----5-----12---|
A|--10-----5-----12---|
E|---8-----3-----10---|

After Chorus	01:40 - 01:48
     D	      G
e|---10-------3---|
B|---10-------3---|
G|---11-------4---|
D|---12-------5---|
A|---12-------5---|
E|---10-------3---|

Verse  01:49 - 02:54
     G	   Em
e|---3---------------|
B|---3---------------|
G|---4---------------|
D|---5------2--------|
A|---5------2--------|
E|---3------0--------|

Chorus   02:54 - 03:21
     C	   G	 D
e|---8-----3-----10---|
B|---8-----3-----10---|
G|---9-----4-----11---|
D|--10-----5-----12---|
A|--10-----5-----12---|
E|---8-----3-----10---|

After Chorus	03:22 - 03:35
     D	      G
e|---10-------3---|
B|---10-------3---|
G|---11-------4---   Let Ring
D|---12-------5---|
A|---12-------5---|
E|---10-------3---|


===============================================================================
Tap to rate this tab
# A B C D E F G H I J K L M N O P Q R S T U V W X Y Z