Song name
# A B C D E F G H I J K L M N O P Q R S T U V W X Y Z

Albert Hammond Jr - Hard To Live In The City tab

---------------------------------------------------------------------------
              HARD TO LIVE (IN THE CITY) - Albert Hammond Jr.
----------------------------------------------------------------------------
Tabbed by: lloeck
Email:lloeck@hotmail.com

Well, it's hard to live, it's hard to live in the city...
e|------------------------------------------------|
B|10-10-10-10-10-10-10-10-10-10-10-10-10-10-10-10-|
G|10-10-10-10-10-10-10-10-10-10-10-10-10-10-10-10-|
D|10-10-10-10-10-10-10-10-10-10-10-10-10-10-10-10-|
A|8--8--8--8--8--8--8--8--8--8--8--8--8--8--8--8--|
E|------------------------------------------------|

e|------------------------------------------------|
B|8--8--8--8--8--8--8--8--8--8--8--8--8--8--8--8--|
G|9--9--9--9--9--9--9--9--9--9--9--9--9--9--9--9--|
D|10-10-10-10-10-10-10-10-10-10-10-10-10-10-10-10-|
A|10-10-10-10-10-10-10-10-10-10-10-10-10-10-10-10-|
E|8--8--8--8--8--8--8--8--8--8--8--8--8--8--8--8--|...
until second time he goes "yes it's hard to live, it's hard to live in the city"


then                                  there's something about you
G|------------------------------------------------|
D|10-10-10-10-10-10-10-10-9--9--9--9--9--9--9--9--| 2x
A|10-10-10-10-10-10-10-10-10-10-10-10-10-10-10-10-|
E|8--8--8--8--8--8--8--8--8--8--8--8--8--8--8--8--|

G|10-10-10-10-10-10-10-10-10-10-10-10-10-10-10-10-|
D|10-10-10-10-10-10-10-10-9--9--9--9--9--9--9--9--| 2x
A|8--8--8--8--8--8--8--8--8--8--8--8--8--8--8--8--|
E|------------------------------------------------|


  Tell those questions I have no answer...
e|------------------------------------------------|
B|10-10-10-10-10-10-10-10-10-10-10-10-10-10-10-10-|
G|10-10-10-10-10-10-10-10-10-10-10-10-10-10-10-10-|
D|10-10-10-10-10-10-10-10-10-10-10-10-10-10-10-10-|
A|8--8--8--8--8--8--8--8--8--8--8--8--8--8--8--8--|
E|------------------------------------------------|

e|8--8--8--8--8--8--8--8--8--8--8--8--8--8--8--8--|
B|8--8--8--8--8--8--8--8--8--8--8--8--8--8--8--8--|
G|9--9--9--9--9--9--9--9--9--9--9--9--9--9--9--9--|
D|10-10-10-10-10-10-10-10-10-10-10-10-10-10-10-10-|
A|10-10-10-10-10-10-10-10-10-10-10-10-10-10-10-10-|
E|8--8--8--8--8--8--8--8--8--8--8--8--8--8--8--8--|

(ending)
 A# F C F (3x)|
 A# C         | 2x
 last chord: F

Tap to rate this tab
# A B C D E F G H I J K L M N O P Q R S T U V W X Y Z