Song name
# A B C D E F G H I J K L M N O P Q R S T U V W X Y Z

Albert Hammond Jr - Scared chords

Highlighted       Show chord diagrams
Verse:
D
You know that something inside of you
Bm                               Em
Still plays a part in what i do, always
    G        A
I'm here for you
D
I think that if we were all we had
Bm                                      Em
That's more than most people ever have, anyway
                   G    A
Oh anyway, you can stay here

Chorus:
Bm                  G                    D                       F#7
I know you're still there because you're scared that you'll lose everybody
Bm                  G                    D                       F#7
I know you're still there because you're scared that you'll lose everything
Bm                  G                    D             F#7
I know you're still there because you're scared

Verse:
D
I'm here if you're scared to go through
Bm                                       Em
Anything just reach out in front of you, always
          G    A
Won't you stay near
D
So close we played it as if we cared
Bm                                      Em
Don't stop now that we're almost there, anyway
       G        A
Oh I'm here for you

Chorus:
Bm                  G                    D                       F#7
I know you're still there because you're scared that you'll lose everybody
Bm                  G                    D                       F#7
I know you're still there because you're scared that you'll lose everything
Bm                  G                    D             F#7
I know you're still there because you're scared

Solo (Guitar 1):
e|----------------3-5---------------------3-5---7-5------------------3-5-----|
B|------------5-7-----7---------------5-7-----7------------------5-7-----7---|
G|------4-6-7-------------------4-6-7----------------------4-6-7-------------|
D|--4h5---------------------4h5------------------------4h5-------------------|
A|---------------------------------------------------------------------------|
E|---------------------------------------------------------------------------|

----------------3-5---|
------------5-7-----7-|
------4-6-7-----------|
--4h5-----------------|
----------------------|
----------------------|

Solo (Guitar 2):
e--3--------------------2------|
B--3-(x16)--------------3-(x8)-|  Repeat x 4
G--4--------------------2------|
D------------------------------|
A------------------------------|
E------------------------------|

Last Chorus:
Bm                  G                    D                       F#7
I know you're still there because you're scared that you'll lose everybody
Bm                  G                    D                       F#7
I know you're still there because you're scared that you'll lose everything
Bm                  G                    D                       F#7
I know you're still there because you're scared that you'll lose everybody
Bm                  G                    D                       F#7
I know you're still there because you're scared that you'll lose everything
Bm                  G                    D                       F#7
I know you're still there because you're scared that you'll lose everybody
Bm                  G                    D                       F#7
I know you're still there because you're scared that you'll lose everything
Bm                  G                    D             F#7
I know you're still there because you're scared

End with a G
Tap to rate this tab
 
# A B C D E F G H I J K L M N O P Q R S T U V W X Y Z