Song name
# A B C D E F G H I J K L M N O P Q R S T U V W X Y Z

Albert Hammond Jr - Spooky Couch tab

-------------------------------------------------------------------------------
			     SPOOKY COUCH - Albert Hammond, Jr.
-------------------------------------------------------------------------------
Tabbed by: wannalatte
Email: wanna.latte@gmail.com

Tuning: Standard
 
*There are no words, so this is more like a piece and not a song*

Guitar 1: 

e|---------2-2-0-0---------2-2-0-0---------3-3-2-2---------3-3-2-2-----------|
B|-----0-0-------------0-0-------------1-1-------------1-1-------------------|
G|-0-0-------------0-0-------------2-2-------------2-2-----------------------|
D|---------------------------------------------------------------------------|
A|---------------------------------------------------------------------------|
E|---------------------------------------------------------------------------|

e|---------5-5-3-3---------5-5-3-3---------7-7-5-5---------7-7-5-5-----------|
B|-----3-3-------------3-3-------------5-5-------------5-5-------------------|
G|-4-4-------------4-4-------------5-5-------------5-5-----------------------|
D|---------------------------------------------------------------------------|
A|---------------------------------------------------------------------------|
E|---------------------------------------------------------------------------|

Guitar 2: 

e|----10----10----10----10---8---8---8---8---7---7---7---7---5---5---5---5---|
B|---------------------------------------------------------------------------|
G|-12----12----12----12----9---9---9---9---7---7---7---7---5---5---5---5-----|
D|---------------------------------------------------------------------------|
A|---------------------------------------------------------------------------|
E|---------------------------------------------------------------------------|

Guitar 3: 

e|--3---5---7---10---12---10---7--10--7---3---5---7---5---3------------------|
B|---------------------------------------------------------------------------|
G|---------------------------------------------------------------------------|
D|---------------------------------------------------------------------------|
A|---------------------------------------------------------------------------|
E|---------------------------------------------------------------------------|

e|--3---5---7---10---12---10--12--/15--12--10--7--10---7---5---7---5---3--/15|
B|---------------------------------------------------------------------------|
G|---------------------------------------------------------------------------|
D|---------------------------------------------------------------------------|
A|---------------------------------------------------------------------------|
E|---------------------------------------------------------------------------|

Guitar 1 switches to: 

e|-------7--5--------5--3--------3--2--------2--0----------------------------|
B|----5-----------3-----------1-----------0----------------------------------|
G|-5-----------4-----------2-----------0-------------------------------------|
D|---------------------------------------------------------------------------|
A|---------------------------------------------------------------------------|
E|---------------------------------------------------------------------------|



************************************

| /   slide up
| \   slide down
| h   hammer-on
| p   pull-off
| ~   vibrato
| +   harmonic
| x   Mute note
| b   Bend
| pb  Pre-bend
| br  Bend release
| pbr Pre-bend release
| brb Bend release bend

************************************
Tap to rate this tab
 
# A B C D E F G H I J K L M N O P Q R S T U V W X Y Z