Song name
# A B C D E F G H I J K L M N O P Q R S T U V W X Y Z

Albert Hammond Jr - Everyone Gets A Star tab

e-----------------------------|
B-----------------------------|
G-----------------------------|
D----4------4-------0------0--|
A--55--55-55-5----22--22222-2-| x2
E-----------------------------|

e---------------------------------|
B---------------------------------|
G---------------------------------|
D----4------4---------------------|
A--55--55555-5----00-4-00-00-4-0--| x2
E---------------------------------|

e-----------------------------|
B-----------------------------|
G-----------------------------|
D----4------4-------0------0--|
A--55--55-55-5----22--22222-2-| x2
E-----------------------------|

e---------------------------------|
B---------------------------------|
G---------------------------------|
D----4------4---------------------|
A--55--55555-5----00-4-00-00-4-0--| x2
E---------------------------------|

e-----------------------|
B-----------------------|
G-77777-999--66666-444--|
D-----------------------|
A-----------------------| x2
E-----------------------|

Tremolo Pick
e-------------------------------------------------------|
B-77-55----55--77-55----55----22-00----00--22-00----00--|
G-------77-----------77-------------22-----------22-----|
D-------------------------------------------------------|
A-------------------------------------------------------| x4
E-------------------------------------------------------|

e----------|
B-7-9--2-0-|
G-7-9--2-0-|
d-7-9--2-0-|
A-5-7--0---| x2
E----------|
                          Tremolo Picking
e----------         e-1010101010-1010-1010-10101010  e-1010-1010-1010101010-|
B-7-9--2-0-         B-------------------------------------------------------|
G-7-9--2-0-         G-------------------------------------------------------|
D-7-9--2-0-         D-------------------------------------------------------|
A-5-7--0--- x2      A-------------------------------------------------------| x3
E----------  During E-------------------------------------------------------|

e-----------------------------|
B-----------------------------|
G-----------------------------|
D----4------4-------0------0--|
A--55--55-55-5----22--22222-2-| x3
E-----------------------------|

Tremolo Pick
e-------------------------------------------------------|
B-77-55----55--77-55----55----22-00----00--22-00----00--|
G-------77-----------77-------------22-----------22-----|
D-------------------------------------------------------|
A-------------------------------------------------------| x2
E-------------------------------------------------------|

e-----------------------|
B-----------------------|
G-77777-999--66666-444--|
D-----------------------|
A-----------------------| x2
E-----------------------|

Tremolo Pick
e-------------------------------------------------------|
B-77-55----55--77-55----55----22-00----00--22-00----00--|
G-------77-----------77-------------22-----------22-----|
D-------------------------------------------------------|
A-------------------------------------------------------| x4
E-------------------------------------------------------|

e----------|
B-7-9--2-0-|
G-7-9--2-0-|
D-7-9--2-0-|
A-5-7--0---| x2
E----------|

e----------          e-------------------------|
B-7-9--2-0-          B-------------------------|
G-7-9--2-0-          G-------------------------|
D-7-9--2-0-          D-------------------------|
A-5-7--0--- x2       A-5-4--2-4-22-0--0-2-0-2--| X3
E----------   During E-------------------------|

 During
     Tremolo Picking
e-1010101010-1010-1010-10101010--|
B--------------------------------|
G--------------------------------|
D--------------------------------|
A--------------------------------| x3
E--------------------------------|

 Ending
e-1010-1010-1010-1010-1010101010(Let Ring)

A-5-4--2-4-22-0--0-2-0-2-5(Let Ring)
Tap to rate this tab
# A B C D E F G H I J K L M N O P Q R S T U V W X Y Z