Song name
# A B C D E F G H I J K L M N O P Q R S T U V W X Y Z

Albert Hammond Jr - In Transit tab

Intro:
(1st guitare)                (x1)(x4 with bass)                            
 e------------------------------|
 b---10--12--12----10--12---10--|
 g-11--11--11----11--11--11-----|
 d------------------------------|
 a------------------------------|
 E------------------------------|
 
(2nd guitare)

                 x3                    x1
 e---10--12--10-----|---10--14--12--10---|
 b-10--10--10--10---|-10--10--10--10-----|
 g------------------|--------------------|  x4 (with 1st guitare)
 d------------------|--------------------|
 a------------------|--------------------|
 E------------------|--------------------|

 lyrics: Free from it all
         I'm not gonna change till I want to
         And I'm free from the world, 
         Were I've built too many walls.

e---------------------------|
b-777-----7-7--555-7-7--9-9-|
g-779-----7-7--666----------|
d-999-----9-9--777----------|
a-999-----9-9--777----------|
E---------------------------|

Tap to rate this tab
# A B C D E F G H I J K L M N O P Q R S T U V W X Y Z