Guitaretab - guitar tabs
Song name
# A B C D E F G H I J K L M N O P Q R S T U V W X Y Z

Albert Hammond Jr - Cartoon Music For Superheroes tab

Albert Hammond Jr.
Cartoon Music For Superheroes

Most of the credit still belongs to Akonite from one of the other tabs, but I made a few 
and still, I know it's not 100% perfect but anyway this is how play it.

Verse
e|---3--3--3---3--3--3---3--3--3---3--3--3--|
B|--5--5------6--6------5--5------5--5------|
G|-5--5--5---4--4--4---5--5--5---5--5--5----|
D|------------------------------------------|
A|------------------------------------------|
E|------------------------------------------|x2

e|---3--3--3---3--3--3---3--3--3---3--3--3--3--3--3--3--3-|
B|--5--5------6--6------5--5-------5--5--5--5--5--5--5--5-|
G|-5--5--5---4--4--4---5--5--5-----5--5--5--5--5--5--5--5-|
D|--------------------------------------------------------|
A|--------------------------------------------------------|
E|--------------------------------------------------------|

Chorus
e|-8-8-8-8-10-10-10-10-12-12-12-12-12-10-10-10--|
B|----------------------------------------------|
G|----------------------------------------------|
D|----------------------------------------------|
A|----------------------------------------------|
E|----------------------------------------------|x3
[ Tab from: http://www.guitaretab.com/a/albert-hammond-jr/79758.html ]
e|-8-8-8-8-8-8-8-8-7-7-7-5-5-5-5-3-3-3--3--3--3--3--3--|
B|----------------------------------5--5-----5--5------|
G|---------------------------------5--5--5--5--5--5----|
D|-----------------------------------------------------|
A|-----------------------------------------------------|
E|-----------------------------------------------------|

Verse
e|---3--3--3---3--3--3---3--3--3---3--3--3--|
B|--5--5------6--6------5--5------5--5------|
G|-5--5--5---4--4--4---5--5--5---5--5--5----|
D|------------------------------------------|
A|------------------------------------------|
E|------------------------------------------|x2

e|---3--3--3---3--3--3-|
B|--5--5------6--6-----|
G|-5--5--5---4--4--4---|
D|---------------------|
A|---------------------|
E|---------------------|x3

e|---3--3--3---3--3--3--3--3--3--3--3-|
B|--5--5-------5--5--5--5--5--5--5--5-|
G|-5--5--5-----5--5--5--5--5--5--5--5-|
D|------------------------------------|
A|------------------------------------|
E|------------------------------------|

Chorus
e|-8-8-8-8-10-10-10-10-12-12-12-12-12-10-10-10--|
B|----------------------------------------------|
G|----------------------------------------------|
D|----------------------------------------------|
A|----------------------------------------------|
E|----------------------------------------------|x3

e|-88888888-777-5555-3-3-3--3--3--|
B|----------------------5--5--5---|
G|---------------------5--5--5----|
D|--------------------------------|
A|--------------------------------|
E|--------------------------------|

By Barokas
Let me know if anything's wrong, jpqfd@hotmail.com =)
Related for Cartoon Music For Superheroes tab
×
Cartoon Music For Superheroes