Song name
# A B C D E F G H I J K L M N O P Q R S T U V W X Y Z

Albert Hammond - When I Need You tab

-----------------------------------------------------------------------------
			     WHEN I NEED YOU - Albert Hammond
-----------------------------------------------------------------------------
Tabbed by: Travis Wong
Email: travis_wong@hotmail.com

Hammonds When I Need You is played in 3/4 Time.  Note the second last note with the * is a fermata.

Tuning: EADGBe

e|------------|---0---|--0----0-|--0--1--3--|--3--1--0-|-----|--------------|
B|------------|-------|---------|-----------|----------|--3--|--3---3-------|
G|--0-0--2----|-------|---------|-----------|----------|-----|--------------|
D|------------|-------|---------|-----------|----------|-----|--------------|
A|------------|-------|---------|-----------|----------|-----|--------------|
E|------------|-------|---------|-----------|----------|-----|--------------|

e|-----0--1--|--1--0-----|-----|--------|--------0-|--0-------|-------------|
B|--3--------|--------3--|-2---|--2---2-|--2--3----|-----3--2-|--0----------|
G|-----------|-----------|-----|--------|----------|----------|-----2--0----|
D|-----------|-----------|-----|--------|----------|----------|-------------|
A|-----------|-----------|-----|--------|----------|----------|-------------|
E|-----------|-----------|-----|--------|----------|----------|-------------|

e|-----3--1--|--0---|--0---0-|--0--1--3-|--3--1--0-|----|--------|----0--1--|
B|-----------|------|--------|----------|----------|--3-|--3---3-|--3-------|
G|--0--------|------|--------|----------|----------|----|--------|----------|
D|-----------|------|--------|----------|----------|----|--------|----------|
A|-----------|------|--------|----------|----------|----|--------|----------|
E|-----------|------|--------|----------|----------|----|--------|----------|

e|--1--0-----|----|----|--------0-|--0--------|----|---------|-----|--------|
B|--------3--|-2--|-2--|--2--3----|-----3--2--|-3--|-------0-|--3*-|--2-----|
G|-----------|----|----|----------|-----------|----|--0--2---|-----|--------|
D|-----------|----|----|----------|-----------|----|---------|-----|--------|
A|-----------|----|----|----------|-----------|----|---------|-----|--------|
E|-----------|----|----|----------|-----------|----|---------|-----|--------|

| /  slide up
| \  slide down
| h  hammer-on
| p  pull-off
| ~  vibrato
| +  harmonic
| x  Mute note
Tap to rate this tab
# A B C D E F G H I J K L M N O P Q R S T U V W X Y Z