Song name
# A B C D E F G H I J K L M N O P Q R S T U V W X Y Z

Albert Roussel - Segovia tab

Segovia
by: Albert Roussel (1869-1937)
TablEdited by Austin L Baldwin
Taken from Eliot Fisk's video The Segovia Style
Tuning: E A D G B E  -  Time Signature: 4/4

 |       |       |       |        |       |       |       |        
|--------------------------------|--------------------------------|
|--------2-----------------------|--------------------------------|
|--------2-----------------------|--------2-----------------------|
|--------4-------2---------------|--------4-------2-------2-------|
|0-------------------------------|------------------------2-------|
|0-------------------------------|0-------------------------------|

 |       |       |       |        |       |       |       |        
|--------------------------------|--------------------------------|
|--------2-----------------------|--------------------------------|
|--------2-----------------------|--------2-----------------------|
|--------4-------2---------------|--------4-------2-------2-------|
|0-------------------------------|------------------------2-------|
|0-------------------------------|0-------------------------------|

 |       |       |       |        |       |       |       |        
|4-------4-----------------------|4-------4-----------------------|
|3-------3-----------------------|3-------3-----------------------|
|4-------4-----------------------|4-------4-----------------------|
|--------------------2-----------|--------------------2-----------|
|--------------------------------|--------------------------------|
|0-------------------------------|0-------------------------------|

 |       |       |       |        |       |       |       |        
|4-------------------------------|4-------5-------7---------------|
|3---------------3---------------|--------------------------------|
|4-------4-----------------------|----------------4---------------|
|--------------------------------|6-------7-----------------------|
|--------2-------5---------------|--------------------------------|
|0-------------------------------|--------------------------------|

 |       |       |       |        |       |       |       |        
|5-------7-------4-----------4---|0-------------------------------|
|7---------------5-------7-------|2-------------------------------|
|------------------------7-------|--------2-----------------------|
|--------------------------------|--------4-------2---------------|
|------------------------7-------|--------------------------------|
|0-------------------------------|0-------------------------------|

 |       |       |       |        |       |       |       |        
|----------------2---------------|0-------------------------------|
|----------------3---------------|2-------------------3-----------|
|------------------------1-------|--------------------4-------1---|
|--------------------------------|--------------------------------|
|--------0-----------------------|--------2-----------------------|
|0-------------------------------|0-------------------------------|

 |       |       |       |        |       |       |       |        
|--------------------------------|--------------------------------|
|2-------------------------------|--------2-----------------------|
|2-------2-----------------------|--------2-----------------------|
|--------4-------2---------------|--------4-------2---------------|
|0-------------------------------|0-------------------------------|
|--------------------------------|0-------------------------------|

 |       |       |       |        |       |       |       |        
|--------------------------------|--------------------------------|
|--------------------------------|------------2-------------------|
|--------2-----------------------|------------2-------------------|
|--------4-------2-------2-------|------------4-----------2-------|
|------------------------2-------|0-------------------------------|
|0-------------------------------|0-------------------------------|

 |       |       |       |        |       |       |       |        
|--------------------------------|9-----------9-------------------|
|--------------------------------|9-----------9-------------------|
|------------2-------------------|9-----------9-----------7-------|
|------------4-------2-------2---|--------------------------------|
|----------------------------2---|--------------------------------|
|0-------------------------------|0-------------------------------|

 |       |       |       |        |       |       |       |        
|9-----------9-------------------|9-------------------------------|
|9-----------9-------------------|9-------------------9-----------|
|9-----------9-----------6-------|9-----------9-------------------|
|--------------------------------|--------------------6-----------|
|--------------------------------|------------7-------------------|
|0-------------------------------|0-------------------------------|

 |       |       |       |        |       |       |       |        
|9-----------10----------12------|10------12------9---10--7---9---|
|--------------------------------|12--------------10------9-------|
|------------------------9-------|--------------------------------|
|11----------12------------------|--------------------------------|
|--------------------------------|--------------------------------|
|--------------------------------|0-----------------------0-------|

 |       |       |       |        |       |       |       |        
|5-------------------------------|--------------------2-----------|
|5-------------------------------|--------------------3-----------|
|6-----------2-------------------|----------------------------1---|
|------------4-----------2-------|--------------------------------|
|--------------------------------|--------0-----------------------|
|0-------------------------------|0-------------------------------|

 |       |       |       |        |       |       |       |        
|0-------------------------------|--------------------------------|
|2---------------3---------------|2-------------------------------|
|----------------4-------1-------|2-------2-----------------------|
|--------------------------------|--------4-------2---------------|
|--------2-----------------------|0-------------------------------|
|0-------------------------------|--------------------------------|

 |       |       |       |        |       |       |       |        
|--------------------------------|--------------------------------|
|------------2-------------------|--------------------------------|
|------------2-------------------|--------2-----------------------|
|------------4-----------2-------|--------4-------2-------2-------|
|0-------------------------------|------------------------2-------|
|0-------------------------------|0-------------------------------|

 |       |       |       |        |       |       |       |        
|--------------------------------|--------------------------------|
|------------2-------------------|--------------------------------|
|------------2-------------------|------------2-------------------|
|------------4-----------2-------|------------4-------2-------2---|
|0-------------------------------|----------------------------2---|
|0-------------------------------|0-------------------------------|

 |       |       |       |        |       |       |       |        
|--------------------------------|--------------------------------|
|2-------------------------------|2-------------------------------|
|--------1-----------------------|------------2-------------------|
|--------2-----------------------|------------4-----------0-------|
|--------------------4-----------|--------------------------------|
|2-------------------------------|0-------------------------------|

 |       |       |       |        |       |       |       |        
|--------------------------------|--------------------------------|
|2-----------------------3-------|2---------------0---2---0-------|
|------------1-------------------|--------1-----------------------|
|------------2-----------4-------|--------0-----------------------|
|--------------------------------|--------------------------------|
|2-------------------------------|0-------------------------------|

 |       |       |       |        |       |       |       |        
|--------------------------------|--------------------2-----------|
|--------------------------------|--------------------3-----------|
|2-------------------------------|----------------------------1---|
|--------4-----------2-----------|--------0-----------------------|
|0-------5-----------0-----------|--------------------------------|
|--------------------------------|0-------------------------------|

 |       |       |       |        |       |       |       |        
|0-------------------------------|--------------------------------|
|2---------------3---------------|2---------------------------2---|
|----------------4-------1-------|2---------------1-------2-------|
|--------2-----------------------|--------2-----------------------|
|--------------------------------|0-------------------------------|
|0-------------------------------|--------------------------------|

 |       |       |       |        |       |       |       |        
|--------------------------------|--------------------------------|
|----------------------------3---|2-------------------------------|
|----------------2-------1-------|------------1-------------------|
|--------2-----------------------|------------2-------------------|
|2-------------------------------|------------------------4-------|
|--------------------------------|0-------------------------------|

 |       |       |       |        |       |       |       |        
|--------------------------------|------------------------2-------|
|2-------------------------------|2-------------------------------|
|------------2-------------------|------------1-----------2-------|
|------------4-----------0-------|------------------------0-------|
|--------------------------------|------------4-------------------|
|0-------------------------------|0-------------------------------|

 |       |       |       |        |       |       |       |        
|0-------------------------------|--------------------------------|
|------------3-----------2-------|2---------------0-------2---0---|
|------------4-------------------|----------------1---------------|
|------------0-----------2-------|4-------4-------0---------------|
|--------------------------------|--------------------------------|
|0-------------------------------|0-------------------------------|

 |       |       |       |        |       |       |       |        
|--------------------------------|--------------------------------|
|--------------------------------|--------------------------------|
|2-------------------------------|------------2-------------------|
|--------4-----------2-----------|------------4-------2-------2---|
|0-------------------2-----------|----------------------------2---|
|--------------------------------|0-------------------------------|

 |       |       |       |        |       |       |       |        
|--------------------------------|--------------------------------|
|------------2-------------------|--------------------------------|
|------------2-------------------|--------2-----------------------|
|------------4-----------2-------|--------4-------2-------2-------|
|0-------------------------------|------------------------2-------|
|0-------------------------------|0-------------------------------|

 |       |       |       |        |       |       |       |        
|--------------------------------|------------5-------------------|
|--------------------------------|------------7-------2-----------|
|------------2-------------------|------------7---------------4---|
|------------4-----------2-------|------------7---------------6---|
|4-------------------------------|4-------------------------------|
|--------------------------------|--------------------------------|

 |       |       |       |        |       |       |       |        
|------------2-----------0-------|--------9-------------------7---|
|--------------------------------|--------10----------------------|
|------------2-------------------|--------11----------7-------9---|
|--------------------------------|----------------------------6---|
|4-------------------------------|4-------------------------------|
|--------------------------------|--------------------------------|

 |       |       |       |        |       |       |       |        
|--------------------------------|--------------------------------|
|--------2---2---2---2-------2---|----2---2---2---2-------2-------|
|--------------------------------|--------------------------------|
|--------------------------------|--------------------------------|
|4-----------------------4-------|4-------------------4-----------|
|--------------------------------|--------------------------------|

 |       |       |       |        |       |       |       |        
|------------------------4-------|2-------------------0-----------|
|3---2---2---2---2-----------2---|----2---2---2---2---0---2---3---|
|--------------------------------|--------------------------------|
|--------------------------------|--------------------------------|
|4-----------------------4-------|4-------------------------------|
|--------------------------------|--------------------------------|

 |       |       |       |        |       |       |       |        
|------------------------9-------|--------------------4-----------|
|--------------------------------|3---2---2---2---2-------2-------|
|6---------------6---------------|--------------------------------|
|7---0---6---9-------------------|--------------------------------|
|9-------------------------------|4-------------------4-----------|
|9-------------------------------|--------------------------------|

 |       |       |       |        |       |       |       |        
|4-------------------5---2---4---|5---------------------------9---|
|----2---2---2---2---5-----------|7---------------7---------------|
|--------------------------------|6-----------7-----------6-------|
|--------------------------------|--------9-----------------------|
|4-------------------------------|4-------------------------------|
|--------------------------------|--------------------------------|

 |       |       |       |        |       |       |       |        
|7-------------------7-----------|7-----------------------9-------|
|9-------------------9-----------|7---------------7---------------|
|----6---6---6---6---7-------6---|7-------6---9-------6-----------|
|--------------------------------|--------------------------------|
|4-------------------4-----------|4-------------------------------|
|--------------------------------|--------------------------------|

 |       |       |       |        |       |       |       |        
|5-------------------5-----------|5---------------------------9---|
|5---2---2---2---2---2-------2---|0-------------------------------|
|6-------------------------------|----7-------9-----------6-------|
|--------------------------------|----------------9---------------|
|4-------------------4-----------|4-------------------------------|
|--------------------------------|--------------------------------|

 |       |       |       |        |       |       |       |        
|4-------------------4-----------|----------------4---------------|
|5---2---2---2---2---5-------2---|3-----------------------3-------|
|4-------------------4-----------|2-----------4-------------------|
|--------------------------------|4-------------------------------|
|4-------------------4-----------|4-------5-------4---------------|
|--------------------------------|--------------------------------|

 |       |       |       |        |       |       |       |        
|2-------------------0-----------|----------------------------9---|
|----2---2---2---2---0---2---3---|--------------------------------|
|--------------------------------|6-------------------6-----------|
|--------------------------------|7---0---6---9---------------0---|
|4-------------------------------|9-------------------------------|
|--------------------------------|9-------------------------------|

 |       |       |       |        |       |       |       |        
|--------------------4-----------|--------------------5---2---4---|
|3---2---2---2---2-------2-------|----2---2---2---2---5-----------|
|--------------------------------|--------------------------------|
|--------------------------------|--------------------------------|
|4-------------------4-----------|4-------------------------------|
|--------------------------------|--------------------------------|

 |       |       |       |        |       |       |       |        
|5---------------------------9---|--------------------------------|
|7---------------7---------------|0-----------------------0-------|
|6-----------7-------6-----------|1-----------------------1-------|
|--------9-----------------------|--------------------------------|
|4-------------------------------|----4---4---4---4-----------4---|
|--------------------------------|--------------------------------|

 |       |       |       |        |       |       |       |        
|----------------------------7---|--------------------------------|
|--------------------5-----------|--------------------------------|
|4---------------7---------------|2-------------------2-----------|
|6-------------------------------|4-------------------4-----------|
|----4---5---5-------------------|----4---4---4---4-------4-------|
|--------------------------------|--------------------------------|

 |       |       |       |        |       |       |       |        
|--------------------0---2-------|--------------------------------|
|----------------2---------------|--------------------------------|
|1-------------------------------|1-------------------1-----------|
|2-------------------------------|2-------------------2-----------|
|----0---4---4-------------------|----4---4---4---4-----------4---|
|--------------------------------|--------------------------------|

 |       |       |       |        |       |       |       |        
|------------------------2-------|--------------------------------|
|----------------0---3-----------|--------------------------------|
|1-------------------------------|1-----------------------1-------|
|2-------------------------------|2-----------------------2-------|
|----0---4---2-------------------|----4---4---4---4-----------4---|
|--------------------------------|--------------------------------|

 |       |       |       |        |       |       |       |        
|----------------------------7---|--------------------------------|
|--------------------------------|------------2-------------------|
|----------------4---7-----------|------------2-------------------|
|6-------------------------------|------------4-----------2-------|
|7---4---5---2-------------------|0-------------------------------|
|--------------------------------|0-------------------------------|

 |       |       |       |        |       |       |       |        
|--------------------------------|--------------------------------|
|--------------------------------|------------2-------------------|
|------------2-------------------|------------2-------------------|
|------------4-------2-------2---|------------4-----------2-------|
|----------------------------2---|0-------------------------------|
|0-------------------------------|0-------------------------------|

 |       |       |       |        |       |       |       |        
|--------------------------------|4-----------4-------------------|
|--------------------------------|3-----------3-------------------|
|------------2-------------------|4-----------4-------------------|
|------------4-------2-------2---|------------------------2-------|
|----------------------------2---|--------------------------------|
|0-------------------------------|0-------------------------------|

 |       |       |       |        |       |       |       |        
|4-----------4-------------------|4-------------------------------|
|3-----------3-------------------|3-----------------------3-------|
|4-----------4-------------------|4-----------4-------------------|
|------------------------2-------|--------------------------------|
|--------------------------------|------------2-----------5-------|
|0-------------------------------|0-------------------------------|

 |       |       |       |        |       |       |       |        
|4-------5-----------7-----------|5-------7-------4---5-------4---|
|--------------------------------|7---------------5-------7-------|
|--------------------4-----------|------------------------7-------|
|6-------7-----------------------|--------------------------------|
|--------------------------------|------------------------7-------|
|--------------------------------|0-------------------------------|

 |       |       |       |        |       |       |       |        
|0-------------------------------|--------------------2-----------|
|2-------------------------------|--------------------3-----------|
|------------2-------------------|----------------------------1---|
|------------4-----------2-------|--------------------------------|
|--------------------------------|------------0-------------------|
|0-------------------------------|0-------------------------------|

 |       |       |       |        |       |       |       |        
|0-------------------------------|--------------------------------|
|2-------------------3-----------|2-------------------------------|
|--------------------4-------1---|2-----------2-------------------|
|--------------------------------|------------4-----------2-------|
|--------2-----------------------|0-------------------------------|
|0-------------------------------|--------------------------------|

 |       |       |       |        |       |       |       |        
|--------------------------------|--------------------------------|
|------------2-------------------|--------------------------------|
|------------2-------------------|------------2-------------------|
|------------4-----------2-------|------------4-------2-------2---|
|0-------------------------------|----------------------------2---|
|0-------------------------------|--------------------------------|

 |       |       |       |        |       |       |       |        
|--------------------------------|--------------------------------|
|------------2-------------------|--------------------------------|
|------------2-------------------|------------2-------------------|
|------------4-----------2-------|------------4-------2-------2---|
|0-------------------------------|----------------------------2---|
|0-------------------------------|0-------------------------------|

 |       |       |       |        |       |       |       |        
|9-----------9-------------------|9-------9-----------------------|
|9-----------9-------------------|9-------9-----------------------|
|9-----------9-----------7-------|9-------9-------6---------------|
|--------------------------------|--------------------------------|
|--------------------------------|--------------------------------|
|0-------------------------------|0-------------------------------|

 |       |       |       |        |       |       |       |        
|9-------------------------------|9-----------10----------12------|
|9---------------9---------------|--------------------------------|
|9-------9-----------------------|------------------------9-------|
|----------------6---------------|11----------12------------------|
|--------7-----------------------|--------------------------------|
|0-------------------------------|--------------------------------|

 |       |       |       |        |       |       |       |        
|10--12------9---10----------9---|5-------------------------------|
|12----------10----------12------|5-------------------------------|
|------------------------13------|6-----------2-------------------|
|--------------------------------|------------4-----------2-------|
|--------------------------------|--------------------------------|
|0-----------------------14------|0-------------------------------|

 |       |       |       |        |       |       |       |        
|--------------------2-----------|0-------------------------------|
|--------------------3-----------|2-----------------------3-------|
|----------------------------1---|------------------------4---1---|
|--------------------------------|--------------------------------|
|------------0-------------------|------------2-------------------|
|0-------------------------------|0-------------------------------|

 |       |       |       |        |       |       |       |        
|--------------------------------|--------------------------------|
|2-------------------------------|------------2-------------------|
|2-----------2-------------------|------------2-------------------|
|------------4-----------2-------|------------4-----------2-------|
|0-------------------------------|4-------------------------------|
|--------------------------------|4-------------------------------|

 |       |       |       |        |       |       |       |        
|--------------------------------|--------------------------------|
|--------------------------------|------------2-------------------|
|--------2-----------------------|------------2-------------------|
|--------4-------2-------2-------|------------4-----------2-------|
|------------------------2-------|4-------------------------------|
|0-------------------------------|4-------------------------------|

 |       |       |       |        |       |       |       |        
|--------------------------------|5-------------------------------|
|--------------------------------|------------5-------------------|
|------------2-------------------|------------6-------4-----------|
|------------4-------2-------2---|--------------------------------|
|----------------------------2---|4-------------------------------|
|0-------------------------------|--------------------------------|

 |       |       |       |        |       |       |       |        
|5-----------2-------------------|5-----------------------7-------|
|------------3-------------------|------------7-------------------|
|--------------------4-----------|------------7-----------6-------|
|--------------------7-----------|--------------------------------|
|4-------------------------------|4-------------------------------|
|--------------------------------|--------------------------------|

 |       |       |       |        |       |       |       |        
|5---------------4-------5---4---|2-------------------------------|
|--------5-----------------------|--------------------------------|
|--------4-----------------------|------------1-----------1-------|
|--------------------------------|------------2-----------2-------|
|4-------------------------------|------------4-----------4-------|
|--------------------------------|2-------------------------------|

 |       |       |       |        |       |       |       |        
|--------------------------------|--------------------2-----------|
|--------------------3-----------|2-------------------3-------0---|
|--------------------4-------1---|2-------------------------------|
|--------2-----------------------|--------4-----------------------|
|--------------------------------|--------------------------------|
|2-------------------------------|2-------------------------------|

 |       |       |       |        |       |       |       |        
|0-------------------------------|0-------------------------------|
|--------------------0-----------|------------0-----------2-------|
|------------2-------1-----------|------------1-----------2-------|
|------------4-------2-----------|------------------------4-------|
|0-------------------------------|0-------------------------------|
|--------------------------------|--------------------------------|

 |       |       |       |        |       |       |       |        
|0-----------------------2-------|0-----------------------0-------|
|------------2-----------0-------|3-----------2-------3-------3---|
|------------2-----------2-------|--------------------4-----------|
|------------6-------------------|--------------------4-----------|
|0-------------------------------|--------------------------------|
|--------------------------------|4-------------------------------|

 |       |       |       |        |       |       |       |        
|--------------------------------|--------------------------------|
|2-------------------------------|------------------------0-------|
|------------1-------------------|------------------------1-------|
|2-------------------------------|------------0-----------2-------|
|--------------------------------|4-------------------------------|
|------------------------4-------|--------------------------------|

 |       |       |       |        |       |       |       |        
|--------------------------------|--------------------------------|
|2-----------------------3-------|2-------------------------------|
|2-----------------------4-------|2-------------------------------|
|--------------------------------|4-------------------0-----------|
|0-------------------------------|------------4-------------------|
|------------4-----------0-------|2-------------------------------|

 |       |       |       |        |       |       |       |        
|--------------------------------|--------------------------------|
|2-------------------------------|2-----------------------3-------|
|2-------------------------------|1-----------2-----------4-------|
|4-------------------0-----------|2-----------4-----------0-------|
|------------4-------------------|0-----------5-------------------|
|2-------------------------------|------------------------2-------|

 |       |       |       |        |       |       |       |        
|--------------------------------|------------------------0-------|
|2---------------0-------2---0---|--------------------------------|
|2---------------1---------------|2-------------------------------|
|2-------2-------0---------------|------------2-------------------|
|--------------------------------|4-------------------------------|
|0-------------------------------|5-----------------------0-------|

 |       |       |       |        
|16------------------------------|
|--------------------------------|
|14------------------------------|
|--------------------------------|
|0-------------------------------|
|--------------------------------|

Created with TablEdit http://www.tabledit.com/

Tap to rate this tab
# A B C D E F G H I J K L M N O P Q R S T U V W X Y Z