Song name
# A B C D E F G H I J K L M N O P Q R S T U V W X Y Z

Alberto Cortez - Callejero tab

-------------------------------------------------------------------------------
			CALLEJERO - Alberto Cortéz
-------------------------------------------------------------------------------
Tabbed by: Rafa88offspring
Email: rafa88offspring@hotmail.com

Tuning: Standard (EADgbe)

Una muy buena canción del señor Cortéz.
Cualquier cosa ahí está mi mail.

Intro
   Gm arpegiado					    Dm arpegiado
e|---------------------------------------------------5-----5-----5--|
B|----11-------11-------11----11-------11-------11-----6-----6------|
G|-------12-------12-------------12-------12------------------------| x2
D|------------------------------------------------------------------|
A|-10-------10-------10----10-------10-------10----5-----5-----5----|
E|------------------------------------------------------------------|

Verso
"Era callejero por derecho propio"  
e|---------------------------------------------------5-----5-----5--|
B|----11-------11-------11----11-------11-------11-----6-----6------|
G|-------12-------12-------------12-------12------------------------|
D|------------------------------------------------------------------|
A|-10-------10-------10----10-------10-------10----5-----5-----5----|
E|------------------------------------------------------------------|

"Su filosofía de la libertad"
e|---------------------------------------------------5-----5-----5--|
B|----11-------11-------11----11-------11-------11-----6-----6------|
G|-------12-------12-------------12-------12------------------------|
D|------------------------------------------------------------------|
A|-10-------10-------10----10-------10-------10----5-----5-----5----|
E|------------------------------------------------------------------|

"fue a ganar la suya sin atar a otros"
				    Am arpegiado
e|---5-----5-----5---5-----5-----5---5-----5-----5--|
B|-----6-----6---------6-----6---------5-----5------|
G|--------------------------------------------------|
D|--------------------------------------------------|
A|-5-----5-----5---5-----5-----5--------------------|
E|---------------------------------5-----5-----5----|

"y sobre los otros no pasar jamás"
  E7 arpegiado				A arpegiado
e|---4-----4------4---4-----4------4---5-----5-----5---5-----5-----5--|
B|-----0-----0----------0-----0---------------------------------------|
G|---------------------------------------6-----6---------6-----6------|
D|--------------------------------------------------------------------|
A|--------------------------------------------------------------------|
E|-0-----0------0---0-----0------0---5-----5-----5---5-----5-----5----|


Gm                                Dm    
Aunque fue de todos nunca tuvo dueño
Gm                           Dm
que condicionara su razón de ser,
                                  Am
libre como el viento era nuestro perro,
                                    Dm
nuestro y de la calle que lo vio nacer.

Am                              Em  
Era un callejero con el sol a cuestas,
Am                          Em
fiel a su destino y su parecer,
                                   Bm   
sin tener horario para hacer la siesta
F#                            B
ni rendirle cuentas al amanecer.

Am                              Em  
Era nuestro perro y era la ternura
Am                           Em
que nos hace falta cada día más,
                            B
era una metáfora de la aventura
                                     Em
que en el diccionario no se puede hallar.

Bm                                F#m
Era nuestro perro porque lo que amamos
Bm                             F#m
lo consideramos nuestra propiedad
                                C#m  
y era de los niños y del viejo Pablo
G#                             C#
a quien rescataba de su soledad.

Bm                               F#m   
Era un callejero y era el personaje
Bm                                 F#m
de la puerta abierta en cualquier hogar
                                  C#
era en nuestro barrio como del paisaje
                                F#m
el sereno, el cura y todos los demás.


"Era el callejero de las cosas bellas"  
e|---------------------------------------------------5-----5-----5--|
B|----11-------11-------11----11-------11-------11-----6-----6------|
G|-------12-------12-------------12-------12------------------------|
D|------------------------------------------------------------------|
A|-10-------10-------10----10-------10-------10----5-----5-----5----|
E|------------------------------------------------------------------|

"y se fue con ellas cuando se marchó"
e|---------------------------------------------------5-----5-----5--|
B|----11-------11-------11----11-------11-------11-----6-----6------|
G|-------12-------12-------------12-------12------------------------|
D|------------------------------------------------------------------|
A|-10-------10-------10----10-------10-------10----5-----5-----5----|
E|------------------------------------------------------------------|

"se bebió de golpe todas las estrellas"
e|---5-----5-----5---5-----5-----5---5-----5-----5--|
B|-----6-----6---------6-----6---------5-----5------|
G|--------------------------------------------------|
D|--------------------------------------------------|
A|-5-----5-----5---5-----5-----5--------------------|
E|---------------------------------5-----5-----5----|

"se quedó dormido y ya no despertó"
e|---4-----4------4---4-----4------4---5-----5-----5---5-----5-----5--|
B|-----0-----0----------0-----0---------------------------------------|
G|---------------------------------------6-----6---------6-----6------|
D|--------------------------------------------------------------------|
A|--------------------------------------------------------------------|
E|-0-----0------0---0-----0------0---5-----5-----5---5-----5-----5----|

Gm                             Dm       
Nos dejó el espacio como testamento,
Gm                              Dm
lleno de nostalgia, lleno de emoción
                                 Am
vaga su recuerdo por los sentimientos
                              
para derramarlos en esta canción.



Se repiten después los acordes de la canción ya sin letra hasta el final.


************************************

| /   slide up
| \   slide down
| h   hammer-on
| p   pull-off
| ~   vibrato
| +   harmonic
| x   Mute note
| b   Bend
| pb  Pre-bend
| br  Bend release
| pbr Pre-bend release
| brb Bend release bend

************************************
Tap to rate this tab
 
# A B C D E F G H I J K L M N O P Q R S T U V W X Y Z