Song name
# A B C D E F G H I J K L M N O P Q R S T U V W X Y Z

Alberto Iglesias - El Faro Cuanto Te Llevo De Ventajas tab

By Takro

May have some mistakes, hope somebody make a Guitar Pro.

Rhythm
(Plays Almost the whole song)

|-----1--1-----1--1--|
|-----3--3-----3--3--|
|-----2--2-----2--2--| 
|-----3--3-----3--3--|
|--0--------0--------|
|--------------------|

Lead
(Let ring all the notes)

|----------------------------------|
|----------------------------------|
|----------------------------------|
|--0--0--2--2--3---0--0--2--2--3---|
|----------------------------------|
|----------------------------------|

|--------------------------------------------------------|
|--------------------------------------------------------|
|------------------7--10--9---0--0--7--7--10--10--9------|
|--5--7--0--5--7-----------------------------------------|
|--------------------------------------------------------|
|--------------------------------------------------------|

|--5--3--------3-----3-----------------------------------|
|--------6--5-----6-----6--5--3--6--5--6--5--3-----5--3--|
|-----------------------------------------------6--------|
|--------------------------------------------------------|
|--------------------------------------------------------|
|--------------------------------------------------------|

|--------------------------------------------------------|
|--------------------------------------------------------|
|-----------------3--3------3--3---7---------------------|
|--0--0--2--2--3---------3------------7------------------|
|--------------------------------------------------------|
|--------------------------------------------------------|

|--------------------------------------------------------|
|--------------------------------------------------------|
|-----------------3--3------3--3-------------------------|
|--0--0--2--2--3---------3-------------------------------|
|----------------------------------5---------------------|
|--------------------------------------------------------|

|--1---1---1---1------1---1---1--------|
|--3---3---3---3------3---3---3--1--0--|
|----2---2---2---4------2---2----------| X2
|--------------------------------------|
|--------------------------------------|
|--------------------------------------|

Official Website

http://www.albertoiglesias.net/base.htm
Tap to rate this tab
# A B C D E F G H I J K L M N O P Q R S T U V W X Y Z