Guitaretab - guitar tabs
Song name
# A B C D E F G H I J K L M N O P Q R S T U V W X Y Z
Home / A / Albi / Melody08 tab

Albi - Melody08 tab

Artist: Albi
Title: melody08
Year: 2007
Guitartune: half-step up (eADGBE -> fA#D#G#CF)
Tempo: 60 bpm, during the last two lines slow down to 50 bpm
Tabbed by: Albi (it's my own instrumental song!!)
contact: albi1988@freemail.hu  





      D#             A#                Fm     G#               
           |---3--|       |---3--|                             
      Q    E   E  E  Q    E   E  E     Q.     Q    S E.  E   3x
F ||--2----3s--2-----0----3s--2--0--|--------------3-----0---||
C ||--3--------L--3--2-----------L--|----------------3---L---||
G#||--2-----------L--2-----------L--|--0------0----L-0---L--*||
D#||--0-----------L--2-----------L--|--2------0----L-0---L--*||
A#||--------------------------------|--2------2----L-2-------||
F ||--------------------------------|--0------3----L-3-------||


  D#             A#                Fm          G#         
       |---3--|       |---3--|                            
  Q    E   E  E  Q    E   E  E     Q.     Q    S  E.  E   
--2----3s--2-----0----3s--2--0--|--------------3--3---3--|
--3--------L--3--2-----------L--|--------------3--3---3--|
--2-----------L--2-----------L--|--0------0----0--0---0--|
--0-----------L--2-----------L--|--2------0----0--0---0--|
--------------------------------|--2------2----2--2---2--|
--------------------------------|--0------3----3--3---3--|


    D#           A#                Fm           G#              
    Q    E  S E  S  E  E    S S    Q    E  S E  S  E  E  S S  4x
|---2----2--2-2--0--0--0----0-0-|--0----0--0-0--3--3--3--3-0--||
|---3----3--3-3--2--2--2br----L-|--0----0--0-0--3--3--3--3-3--||
|*--2----2--2-2--2--2--2----2-0-|--0----0--0-0--0--0--0--0-0-*||
|*--0---------L--2------------L-|--2---------L--0----------L-*||
|---0---------L--0------------L-|--2---------L--2----------L--||
|-------------------------------|--0------------3-------------||


   D#                              A#                       
                     |--3--|                                
   Q    E  S  E.  E  S  S  S E     Q    S E   E.  E  E  E   
---2----3--2s-5---3--2s-3s-2-0--|--0----2-0s--3---2--0--2--|
---3-------L--3--------------L--|--2--------------------L--|
*--2-------------------------L--|--2--------------------L--|
*--0-------------------------L--|--2--------------------L--|
---0-------------------------L--|--0--------------------L--|
--------------------------------|--------------------------|


  Fm         G#             A#sus4       C#add9                 
  Q    E  E  E  E  E  E     E      E  E  E.     S S S E  S S    
--0-------L--------------|---------0------------0--------0----||
--0----3--2-----3--2--3--|--3------L--3--3------L-3---3--L-3--||
--0-------L--0--------L--|--2---------L--0--------L-0------L-*||
--2-------L--0--------L--|--0---------L--2-----------------L-*||
--2-------L--2--------L--|--0---------L--3-----------------L--||
--0-------L--3--------L--|--0---------L--0-----------------L--||

[ Tab from: http://www.guitaretab.com/a/albi/187253.html ]
   D#           A#                Fm           G#              
   Q    E  S E  S  E  E    S S    Q    E  S E  S  E  E  S S    
---2----2--2-2--0--0--0----0-0-|--0----0--0-0--3--3--3--3-0--||
---3----3--3-3--2--2--2br----L-|--0----0--0-0--3--3--3--3-3--||
*--2----2--2-2--2--2--2----2-0-|--0----0--0-0--0--0--0--0-0-*||
*--0---------L--2------------L-|--2---------L--0----------L-*||
---0---------L--0------------L-|--2---------L--2----------L--||
-------------------------------|--0------------3-------------||


                                 A#                          
   E  S S E  S E  S S S E  E     E  S S E  S E  S S S E  E   
---2--2-2-2--2-2--2-2-2-3--5--|--0--0-0-0--0-0--0-0-0-2--3--|
---3--3-3-3--3-3--3-3-3-3--3--|--2--2-2-2--2-2--2-2-2-0--2--|
*--2--2-2-2--2-2--2-2-2----L--|--2--2-2-2--2-2--2-2-2----L--|
*--0----L-0----L--0--------L--|--2--2-2-2--2-2--2--------L--|
---0----L-0----L--0--------L--|--0----L-0----L--0--------L--|
------------------------------|-----------------------------|


  Fm                               G#                              
  E  S S E  S E  S S S S  S S S    E  S S E  S E  S S S S S S S  4x
--------------------------------|--3--3-3-3--3-3--3-3-3-3-3-3-3--||
--0------0-------0-0-0-0s-5-3-2-|--3--3-3-3--3-3--3-3-3-3-3-3-3--||
--0--0-0-0--0-0--0-0-0-0--------|--0--0-0-0--0-0--0-0-0-0-0-0-0-*||
--2--2-2-2--2-2--2------------L-|--0--0-0-0--0-0--0---L-0-0-0-0-*||
--2--2-2-2--2-2--2------------L-|--2----L-2----L--2---L-2-L-2-L--||
--0------0-------0--------------|--3----L-3----L--3---L-3-L-3-L--||


   D#           A#              Fm           G#              
   Q    E  S E  S  E  E  S S    Q    E  S E  S  E  E  S S    
---2----2--2-2--0--0--0--0-0-|--0----0--0-0--3--3--3--3-0--||
---3----3--3-3--2--2--2--2-0-|--0----0--0-0--3--3--3--3-3--||
*--2----2--2-2--2--2--2--2-0-|--0----0--0-0--0--0--0--0-0-*||
*--0---------L--2----------L-|--2---------L--0----------L-*||
---0---------L--0----------L-|--2---------L--2----------L--||
-----------------------------|--0------------3-------------||


  D#             A#                Fm     G#                 
       |---3--|       |---3--|                               
  Q    E   E  E  Q    E   E  E     Q.     S  S S S S Q    S  
--2----3s--2-----0----3s--2--0--|--------------------3----L-|
--3--------L--3--2-----------L--|------------------3-3----L-|
--2-----------L--2-----------L--|--0-------------0---0----L-|
--0-----------L--2-----------L--|--2-----------0-----0----L-|
--------------------------------|--2---------2------------L-|
--------------------------------|--0------3-----------------|


  ^                  
  W                  
--3----------------||
--3----------------||
--0----------------||
--0----------------||
--2----------------||
--3----------------||




Duration Legend
---------------
W - whole
H - half
Q - quarter
E - 8th
S - 16th
T - 32nd
X - 64th
. - note dotted
|-n-|  - n-tuplets


Tablature Legend
----------------
L - tied note
x - dead note
g - grace note
(n) - ghost note
> - accentuded note
NH - natural harmonic
AH - artificial harmonic
TH - tapped harmonic
SH - semi harmonic
PH - pitch harmonic
h - hammer on
p - pull off
b - bend
br - bendRelease
pb - preBend
pbr - preBendRelease
brb - bendReleaseBend
\n/ - tremolo bar dip
\n - tremolo bar dive
-/n - tremolo bar Release up
/n\ - tremolo bar inverted dip
/n - tremolo bar return
-\n - tremolo bar Release down
S - shift slide
s - legato slide
/ -  slide into from below or out of upwards
\ -  slide into from above or out of downwards
~ - vibrato
W - wide vibrato
tr - trill
TP - tremolo picking
T - tapping
S - slap
P - pop
< - fade in
^ - brush up
v - brush down
Related for Melody08 tab