Song name
# A B C D E F G H I J K L M N O P Q R S T U V W X Y Z

Albin Ljunghusen - Det Gamla Regementet tab

Title: Det Gamla Regementet
Artist: Albin Ljunghusen
Year: 2012
Link: https://soundcloud.com/ljunghusen/det-gamla-regementet

Intro/Instrumental

   G                             C               C 7th Maj7
E|---------------------------------------------------------------|
B|---------3-1-0-----------1p0-----------3h5-3-0---------0-------|
G|-----0--0------0-----0--0----0-----0---------------3-----3---0-|
D|---0---------------0-------------2----2----------2---------2---|
A|-------------------------------3-----3---------3-----3---------|
E|-3-----3---------3-----3---------------------------------------|

Verse

   G                             C
E|-----------------------------------------------------------------|
B|---------0---------------0---------------0---------------0-------|
G|-----0-----0---0-----0-----0---0-----0-----0---0-----0-----0---0-|
D|---0---------0-----0---------0-----2---------2-----2---------2---|
A|---------------------------------3-----3---------3-----3---------|
E|-3-----3---------3-----3-----------------------------------------|

   G                             C               F#/D
E|------------------------------------------------------------------|
B|---------0---------------0---------------0---------------3--------|
G|-----0-----0---0-----0-----0---0-----0-----0---0-----2-----2---2--|
D|---0---------0-----0---------0-----2---------2-----0---------0----|
A|---------------------------------3-----3--------------------------|
E|-3-----3---------3-----3-------------------------2-----2----------|

Chorus

   Em              Am              C               Dsus4
E|-----------------------------------------------------------------|
B|---------0---------------1---------------1---------------3-------|
G|-----0-----0---0-----2-----2---0-----0-----0---0-----0-----0-----|
D|---2---------2-----2---------------2---------2-----4-----------0-|
A|-----------------0-----0-----2---3-----3---------5-----5---------|
E|-0-----0---------------------------------------------------------|


Säg som det är - Säg att du hatar det
Säg att du inte trivs
med att bygga dess höga murar
kring en stad som i slutändan     ändå rivs

Dina ben de bär dig dit du ber dem
men med en deadline som kryper på
ställer du dig i ett hörn och skakar
och slösar bort dina bästa år

Du kan inte stanna här nå' mer
för det gamla regementet hånar dig

Och du vet hon hade rätt när hon sa "Skit i det"
Skit i allt, för du passar ändå inte in
Bland pingviner som höjer glasen
Och skålar högt för deras krystade tillställning

Där sitter de i sin fästning och tittar ned på dig
Och dömer ditt varenda drag
och säger "det handlar om att bara bestämma sig
for att ge fan i nån jantelag"

Du kan inte stanna här nå' mer
för det gamla regementet hånar dig
Tap to rate this tab
# A B C D E F G H I J K L M N O P Q R S T U V W X Y Z