Song name
# A B C D E F G H I J K L M N O P Q R S T U V W X Y Z

Aldo Nova - Excuse Me While I Scream tab

Tabbed By Jake ('cause no 1 else did)
NewAxe7@hotmail.com 
I know you guys are all better than me but, it's a cool song and I thought if you
tried it, you guys could improve it and add the solos that I have a hard time with,
... use tons of distortion, delay (add a little chorus) and a WAWA, ...

e-|---------------------------18~~--|-------------------------|
B-|---------------------------------|------------9\13---------|
G-|------------13-------------------|-----------------13------|
D-|-15br-13-15----13-15-------------|-3-3---3-3----------3-3--|
A-|---------------------13-11-------|-3-3---3-3----------3-3--|
E-|---------------------------------|-1-1---1-1----------1-1--|

e-|----------------------------------------------------------|
B-|----------------------------------------------------------|
G-|----------------------------------------------------------|
D-|-h15p13h15p13h15p13h15p13-15-13-15-13-15-13---------------|
A-|--------------------------------------------15-13-15------|
E-|-----------------------------------------------------13~--|

e-|----------------------------------|---------------------------|
B-|----------------------------------|---------------------------|
G-|----------------------------------|---------------------------|
D-|-15-13-15-13-15-13----------13~~--|---------------------------|
A-|-------------------15-13-15-------|-h15p13h15p13h15p13h15p13--|
E-|----------------------------------|---------------------------|

e-|-------------------------------|----------------------------------------|
B-|-------------------------------|----------------------------------------|
G-|-------------------------------|----------------------------------------|
D-|-15-13-15-13-15-13-------------|----------------------------------13-15-|
A-|-------------------15-13-15----|-13\15-13-13\15----13\15-13-13\15-------|
E-|----------------------------13-|----------------13----------------------|
Tap to rate this tab
 
# A B C D E F G H I J K L M N O P Q R S T U V W X Y Z