Song name
# A B C D E F G H I J K L M N O P Q R S T U V W X Y Z

Alejandra Guzman - Hacer El Amor Con Otro tab

|----------7h9-9-9-9p7-7-7\4-4-4-4-------2----|
|----------7---7-7-7---7-7\4-4-4-4-------4----|
|----------------------------------4-----4----|
|------------------------------------4---4----|
|----------------------------------------2----|
|---7------------------------------------2----|


|-----------|
|-----------|
|-----------|  and repeat the first part
|-----------|
|-----0-----|
|---2---7---|

on this part start to sing

|------------|-------0---X--|-----------2--|-------0----|
|-------4----|-------4---4--|-------0------|----------0-|
|---------4--|-----4-----4--|---------1----|-----1----1-|
|-----4------|---4-------4--|-----2--------|---2------2-|
|---2--------|-2---------2--|---2----------|-2----------|
|------------|-----------2--|--------------|------------|


|------1-----|-------0------|------0------0|-------0-----2-|
|------------|--------------|--------------|-------------4-|
|------------|-----0--------|----1---------|---1-----1/4-4-|
|----3-------|--------------|--------------|-----2---2/4-4-|
|--3------3-2|--0-----------|--2------2-0--|-2-------------|
|------------|--------------|--------------|---------------|


|------------|------------------|----------|--------0-----|
|------4-----|------------------|------0---|--------------|
|------------|------------------|--------1-|----1---------|
|----4-------|-------6-6-----8--|----2-----|------2---2-1-|
|--2-----1---|-2-2-2-4-4-2-2-6-4|--2-------|--2-------2-2-|
|------------|------------------|----------|--------------|


|------1-----|------0-----0-----|-----0-------0|-------0---2-|
|------------|------------------|--------------|-----------2-|
|------------|----0-------------|---0-------0--|---1-------3-|
|----3-------|------------------|--------------|-----2---2/4-|
|--3-----3-2-|--2-----2-1-------|-2-----2-1----|-2---------4-|
|------------|--------------3-2-|--------------|-----------2-|
Tap to rate this tab
 
# A B C D E F G H I J K L M N O P Q R S T U V W X Y Z