Song name
# A B C D E F G H I J K L M N O P Q R S T U V W X Y Z

Alejandro Escovedo - After The Meteor Shower tab

----------------------------------------------------------------------------
                      After the Meteor Shower
                        Alejandro Escovedo
                      Album: Street Songs of Love
----------------------------------------------------------------------------
Tabbed by:eboswald Houston Texas

Tuning:Standard

The verses are all variations of the E B C#m B chord progression

.....E............B...........C#m..........B.............E|
e|--x------------7------------4------------2-------------x|
B|--9-9-10-9-7---7-7-9-7------5-5-7-5-4----4--4-5-4-2----9|
G|--9----------9-8-------9-8--6---------6--4----------4s-9|
D|--9------------9------------6------------4-------------9|
A|--7------------9------------4------------2-------------7|
E|--x------------7------------x----------------x----------|

{E}She was pretty as a {B}starlette
{C#m}Take a photo {B}please
Her {E}skin was soft whitw lumin-{B}esence
Like a {C#m}bandle in the wild {B}wind

Chorus
You can {A}blame the {B}stars
You can {A}blame the {E}wind
You can {A}blame the meteor {E}showers
The original {C#m}sin {B}

Instrumental verse

Her mind was deep and dark like poison
And like poison I drank it up
Her lips were red hot like fire
And like fire I drank it up

Chorus
You can {A}blame the {B}stars
You can {A}blame the {E}wind
You can {A}blame the meteor {E}showers
The original {C#m}sin {B}

Instrumental Verse

{E}She was pretty as a {B}starlette
{C#m}Take a photo {B}please
Her {E}skin was hot white lumin-{B}esence
Like a {C#m}bandle in the viscious {B}wind
Tap to rate this tab
 
# A B C D E F G H I J K L M N O P Q R S T U V W X Y Z