Song name
# A B C D E F G H I J K L M N O P Q R S T U V W X Y Z

Alejandro Escovedo - Undesired tab

----------------------------------------------------------------------------
			     Undesired - Alejandro Escovedo
----------------------------------------------------------------------------
Tabbed by:eboswald Houston Texas

Tuning:Standard

Lead Break

e|------------------------------------------------------------------|
B|-------------------------------5--7--8P7--------------------------|
G|---0-2---0-2---0-2-4-4B5R4-2---5--7--7--7-------------------------|
D|-4-----4-----4---------------4-5--7--7----7-----------------------|
A|-------------------------------3--5-------------------------------|
E|------------------------------------------------------------------|

Funny non standard Chord 
Bm7sus-something or other (comments?)
e|-2---------------------------------------=------------------------|
B|-3----------------------------------------------------------------|
G|-4----------------------------------------------------------------|
D|-2----------------------------------------------------------------|
A|-2----------------------------------------------------------------|
E|------------------------------------------------------------------|


{D}Fought in Paris, fought in Rome
Beneath the lights of the Astrodome
{C}Now baby, {G}did'nt we do {D}now?

(D}Drank the peace, to ourselves
Poured the poison drank a toast to ourselves
{C}Baby, {G}did;nt we {D}now?

CHORUS
{G}Sing a song to the {Bm7sus}undecider
Send her south to the lonley lovers
            repeat twice
            e|-2-------------2-|
            B|-3-------------3-|
            G|-2-----0-----0-2-|
            D|-0---2-----0---0-|
            A|---3-----2-------|
            E|-----------------|
{G}Sing a song to the {Bm7sus}undecider
For all young lovers that walk beside her
I aint easy
e|-2-------------2-|
B|-3-------------3-|
G|-2-----0-----0-2-|
D|-0---2-----0---0-|
A|---3-----2-------|
E|-----------------|
I aint easy
e|-2-------------2-|
B|-3-------------3-|
G|-2-----0-----0-2-|
D|-0---2-----0---0-|
A|---3-----2-------|
E|-----------------|

Lead Break

e|------------------------------------------------------------------|
B|-------------------------------5--7--8P7--------------------------|
G|---0-2---0-2---0-2-4-4B5R4-2---5--7--7--7-------------------------|
D|-4-----4-----4---------------4-5--7--7----7-----------------------|
A|-------------------------------3--5-------------------------------|
E|------------------------------------------------------------------|

Sail the island in a fishing boat
Shared our secrets and we held them close
Baby, yeah you know we did


Pledged our hearts drank the tears
Stood up to every monster there
Now Baby, yeah you know we did


CHORUS

Lead Break

e|------------------------------------------------------------------|
B|-------------------------------5--7--8P7--------------------------|
G|---0-2---0-2---0-2-4-4B5R4-2---5--7--7--7-------------------------|
D|-4-----4-----4---------------4-5--7--7----7-----------------------|
A|-------------------------------3--5-------------------------------|
E|------------------------------------------------------------------|

Broken Needle, the microphone
Betrayed our love a million miles from home
Baby, yeah you know we did

Last CHORUS
{G}Sing a song to the {Bm7sus}undecider
Send her south to the lonley lovers
            repeat twice
            e|-2-------------2-|
            B|-3-------------3-|
            G|-2-----0-----0-2-|
            D|-0---2-----0---0-|
            A|---3-----2-------|
            E|-----------------|

{G}Sing a song to the {Bm7sus}undecider
For all young lovers that walk beside her
I aint easy
e|-2-------------2-|
B|-3-------------3-|
G|-2-----0-----0-2-|
D|-0---2-----0---0-|
A|---3-----2-------|
E|-----------------|
I aint easy
e|-2-------------2-|
B|-3-------------3-|
G|-2-----0-----0-2-|
D|-0---2-----0---0-|
A|---3-----2-------|
E|-----------------|
I aint easy
e|-2-------------2-|
B|-3-------------3-|
G|-2-----0-----0-2-|
D|-0---2-----0---0-|
A|---3-----2-------|
E|-----------------|


Lead Break

e|------------------------------------------------------------------|
B|-------------------------------5--7--8P7--------------------------|
G|---0-2---0-2---0-2-4-4B5R4-2---5--7--7--7-------------------------|
D|-4-----4-----4---------------4-5--7--7----7-----------------------|
A|-------------------------------3--5-------------------------------|
E|------------------------------------------------------------------|
Tap to rate this tab
 
# A B C D E F G H I J K L M N O P Q R S T U V W X Y Z