Guitaretab - guitar tabs
Song name
# A B C D E F G H I J K L M N O P Q R S T U V W X Y Z

Alejandro Fernandez - Te Voi A Perdr tab

SOLO: A   Em7   D   A
[ Tab from: http://www.guitaretab.com/a/alejandro-fernandez/97809.html ]
e|--------------------------------------------------------------|
B|--------------------------------------------8-6---------------|
G|-7-7-7-7-5-3-7-7-7-5-3--8-8-8-8-7-5-8-7-5-------------------|
D|--------------------------------------------------------------|
A|--------------------------------------------------------------|
E|--------------------------------------------------------------|



e|--------------------------------------------------------------|
B|--------------11---------12-----------------------------------|
G|12-12-12-10-8-----10-9-7-----/16-15-16-15-18-16-15-16---------|
D|--------------------------------------------------------------|
A|--------------------------------------------------------------|
E|--------------------------------------------------------------|

Related for Te Voi A Perdr tab