Song name
# A B C D E F G H I J K L M N O P Q R S T U V W X Y Z

Alejandro Filio - Vienes Con El Sol tab

Alejandro Filio

Vienes Con El Sol

Capo 2nd traste

Intro:

e|----------------------------------------------------------------|
B|--3-----1-------0------------0----1-----0-----------0--------3--|
G|----0-------0-------0---0h2---------0-------0---2----------2----|
D|------0-------2-------0--------0------2-------2-----------------|
A|----------------------------------3-----3-------3---------------|
E|--3-----3-------3-------3------------------------------0h2------| x2
    
    ^
e|----------------------------------------------------------------|
B|--3-----1-------0------------0----1-----0-----------0--------3--|
G|--0---------------0-----2b----------0-----------2b---------2----|
D|--0---------2-------0----------0------2-----2-------------------|
A|----------------------------------3-----3-------3---------------|
E|--3-----3-------3-------3-----------------------------0h2-------| x2

Verso:

e|----------------------------------------------------------------|
B|--0-----0---------------1---------0-----0--------------1--------|
G|--0----(0)--0-----0-----0---0-----0----(0)--0----0-----0---0----|
D|------0-------0-----0h2-------2-------0-------0----0h2-------2--|
A|----------------------------------------------------------------|
E|--3-------3-------3-------3-------3-------3------3-------3------|

e|-------------------------------------------------------------3--|
B|--------1-----1-------1-------1--------------3---1---------1----|
G|-----------------------------------------2-----------2---2------|
D|------2-----0-------2-------2----------0-------0-------0--------|
A|--3-------2-------0---------------------------------------------|
E|--------------------------3-------2--------2-------2------------|

Coro:

e|--------------------0--------------------------------------------|
B|--1-----0-------1-----------------3-----1-------0----------------|
G|------------2-----------2---0---------------0-------0---2---0----|
D|------2-------2-------2-------2-------2-------2-------0-------0--|
A|--0-------0-------0-------0--------------------------------------|
E|----------------------------------3-------3-------3-------3------|

e|--------------------0--------------------------------------------|
B|--1-----0-------1-----------------3-----1-------0----------------|
G|------------2-----------2---0---------------0-------0---2---0----|
D|------2-------2-------2-------2-------2-------2-------0-------0--|
A|--0-------0-------0-------0--------------------------------------|
E|----------------------------------3-------3-------3-------3------|

e|-----------------------------------------------------------------|
B|--------1---------------1-------------1-1p0----------------------|
G|------------0---------------0---------------2p0-2----------------|
D|------2-------2-------0-------0----------------------------------|
A|--3-------------3-2-------------2-0-----0------------------------|
E|------------------------------------------------2----------------|


e|----------------------------------------------------------------|
B|--3-----1-------0------------0----1-----0-----------0--------3--|
G|----0-------------0-----2b----------0-----------2b---------2----|
D|------0-----2-------0----------0------2-----2-------------------|
A|----------------------------------3-----3-------3---------------|
E|--3-----3-------3-------3-----------------------------0h2-------| x2

Puente:

    ^   ^ v ^ v 
e|--1---1-1-1-1----1-------1--------------------------------------|
B|--1---1-1-1-1--------1--------1--3-----1-------0----------------|
G|--2---2-2-2-2------------------------------0-------0---2---0----|
D|--3---3-3-3-3------3-------3---------2-------2-------0-------0--|
A|--3---3-3-3-3---------------------------------------------------|
E|--1---1-1-1-1--1-------1---------3-------3-------3-------3------|

    ^   ^ v ^ v 
e|--1---1-1-1-1----1-------1-----------------0--------------------|
B|--1---1-1-1-1--------1--------1---1----------------------1------|
G|--2---2-2-2-2--------------------------2-------------0----------|
D|--3---3-3-3-3------3-------3---------2-------2-----2-------2----|
A|--3---3-3-3-3---------------------0------0----------------------|
E|--1---1-1-1-1--1-------1------------------------3------3--------|

e|---------------------------|
B|--------3p1---1p0---1p0----|
G|------2-----2-----2-----2--|
D|----0----------------------|
A|---------------------------|
E|-2------2-----2-----2------|

Final:

e|----------------------------------------------------------------|
B|--3-----1-------0------------0----1-----0-----------0--------3--|
G|----0-------------0-----2b----------0-----------2b---------2----|
D|------0-----2-------0----------0------2-----2-------------------|
A|----------------------------------3-----3-------3---------------|
E|--3-----3-------3-------3-----------------------------0h2-------| x2

e|------------3-------------------------------3-------------------|
B|--3-----1-------0------------0----1-----0-----------0--------3--|
G|----0-------------0-----2b----------0-----------2b---------2----|
D|-------------------------------0--------------------------------|
A|----------------------------------3-----3-------3---------------|
E|--3-----3-------3-------3-----------------------------0h2-------|

e|------------3-------------------------------3-------------------|
B|--3-----1-------0------------0----3-----1-------0----------0----|
G|----0-------------0-----2b----------0-------------0-----2b------|
D|-------------------------------0-----------------------------0--|
A|----------------------------------------------------------------|
E|--3-----3-------3-------3---------3-----3-------3-------3-------|


Pides, que diga lo que estoy pensando,
el como del porque y el cuando pero vienes con el sol.
Pides, que deje de beber de cerveza,
que ponga juicio en mi cabeza y luego vienes con el sol.

Pides una estrella, para sonreír con ella,
luego pides, un lucero para atarlo a tu cabello,
y es que vienes siempre, o casi siempre vienes, con el sol.

Pides, que deje en paz el noticiero,
que sea mejor el cocinero, pero vienes con el sol.
Pides, que se suspendan los ronquidos
que se agudicen los sentidos y al cabo vienes con el sol.

Pides una tregua, bajo el mar a tantas leguas,
que no acose a tus encantos, aunque yo me siga helando,
y es que vienes siempre, o casi siempre vienes, con el sol.

Pides una canción de amor, que te confirme que soy tuyo,
pides que cuide más la voz, y que no ataque a quien,
se acaba el mundo.

Pides, que mire todo en positivo,
que se me olvide el enemigo, pero vienes con el sol.
Pides, la discreción y la cordura,
la risa contra la amargura, y al cabo vienes con el sol.

Pides tantas cosas, y yo sigo a manos rotas,
procurando hacerme bueno, para ver si así te tengo,
y es que vienes siempre, o casi siempre vienes, con el sol,
y es que vienes siempre o casi siempre vienes, con el sol.
Tap to rate this tab
 
# A B C D E F G H I J K L M N O P Q R S T U V W X Y Z