Guitaretab - guitar tabs
Song name
# A B C D E F G H I J K L M N O P Q R S T U V W X Y Z

Alejandro Lerner - Dentro De Mi tab

INTRO

E--------------------------------------------------------------------------|
B—6-/-- -7-----------------------------------------------------------------|
G---------------9--/--10---10 ---10----9---7-------------------------------|
D----------------------------------------------------9---------------------|
A--------------------------------------------------------------------------|
E--------------------------------------------------------------------------|

Verse 1

E------------------------------------------------------------------|
B------------------------------------------------------------------|
G------------------------------------------------------------------|
D---------------------------------3-------------with lyrics--------|
A--3—let ring----3--4-----3--1-------------------------------------|
E--1----------------1--2-----1-------------------------------------|

[ Tab from: http://www.guitaretab.com/a/alejandro-lerner/67047.html ]
Verse 2

E------------------------------------------------------------------|
B------------------------------------------------------------------|
G------------------------------------------------------------------|
D------------------------------------------------------------------|
A-----------------------------1------------------------------------|
E---0--2--3-0---4---3---0--------0---------------------------------|

Chorus

E-----------------------------------------------------------------|
B-----------------------------------------------------------------|
G-----------------------------------------------------------------|
D-----------------------------------------------------------------|
A---5--/--6---6--6--6--6---2------or-----5--5-----3----2---1------|
E---3--/--4---4--4--4--4---2--------------3--3----3----2---1------|

SOLO: its just improvising with wah wah pedal on the em pentatonic scale
Related for Dentro De Mi tab