Song name
# A B C D E F G H I J K L M N O P Q R S T U V W X Y Z

Alejandro Sanz - Toca Para Mi tab

intro:


figura A :(3 GUITARRAS)

  Em+5/C    Dm/Bb  Em6+5/G       Em+5/C   Dm/Bb    Em6+5/G

------12\----8/------10~-----------12\-----8/-------8/10~-----------------e
-----8-------5-------6~-----------8--------5--------6~--------------------b
----9--------5-------7~----------9---------5--------7~--------------------g
--10---------5-------8~--------10----------5--------8~--------------------D
--------------------------------------------------------------------------A
--------------------------------------------------------------------------E

------12\8---8-------10------------12\8----8--------8/10------10h810p~----e
------------------------------------------------------------6-------------b
----------------------------------------------------------7---------------g
--------------------------------------------------------------------------D
--------------------------------------------------------------------------A
--------------------------------------------------------------------------E


figura B : (3 GUITARRAS)


----------8\-------------------------------------------------8-----------------------------e
--5--6/8------8--8p10--8--6--5---------------5--6--5--6/8-------8--8p10---8--6--5----------b
----------5------------------------7--7/9--------------------5----------------------7--5~~~g
--2--3/5------5--5/7---5--3--2---------------2--3--2--3/5-------5--5/7----5--3--2----------D
-----------------------------------5--5/7-------------------------------------------5--3~~~A
-------------------------------------------------------------------------------------------E

----------8\--3--3p5---3------------------------------------8\-3---3p5----3----------------e
--5--5/8------------------6--5---------------5--6--5--6/8--------------------6--5----------b
-----------------------------------7--7/9-------------------------------------------7--5~~~g
-------------------------------------------------------------------------------------------D
-------------------------------------------------------------------------------------------A
-------------------------------------------------------------------------------------------E

-------------------------------------------------------------------------------------------e
-------------------------------------------------------------------------------------------b
----------5---0--0p2---0------------------------------------5--0---0p2----0----------------g
--2--3/5------------------3--2---------------2--3--2--3/5--------------------3--2----------D
-----------------------------------5--5/7-------------------------------------------5--3~~~A
-------------------------------------------------------------------------------------------E



parte piano:




 Como cada tarde estaba,en el parque para tocar
 su viejo y cansado instrumento.
 En el mismo banco sentado,    una manta en el suelo a su lado,
 dispuesto a dar el lado bueno y aunque ya se venga menos
 me regala una balada   solo por una mirada



**aqui se mete la guitarra:**



       DO         SOL           LAm               MIm
      De sus aņos de experiencia    y de anecdotas me cuenta

-------------------------------------------------------------e
-----1-----------------3--------------1----------------0-----b
--------0-----------------0--------------2----------------0--g
---2----------------0---------------2----------------2-------D
-3--------------------------------0----------------2---------A
------------------3------------------------------------------E

      FA                   FAm
     yo finjo creerle asi me gusta  verle feliz

------------------------------4------------------------------e
------------------1------------------------------------------b
------------------------2------------------------------------g
------------3------------------------------------------------D
-------------------------------------------------------------A
---------1---------------------------------------------------E


         FA                    SOL7 (SOL)
     contando aventuras y creyendo ser un violin





CORO:


        DO       SOL    LAm       MIm
          toca para mi,     yo te quiero oir.
           FA                  DO
        quiero forma parte de tu locura
          FA                      SOL     figura C
        pondremos nuestras almas de partitura

_____________________________________
                                     |
       -----------------8--10--12--e |
       --8--8--10--12--------------b |
figura -----------------5--7---9---g |
  C    --5--5--7---9---------------D |
       ----------------------------A |
       ----------------------------E |
_____________________________________|


     DO     SOL       LAm       MIm
        toca para mi,    yo te quiero oir.
          FA                   DO
        y que el ultimo latido de tu corazon,
         FA                            SOL   figura C
        sea la rosa que brota de la ultima nota.


**Repetir Figura B**




       DO               SOL             LAm                MIm
          Hay gente que rie al verle              con su pajarita verde

---8--8-8-8----10------10-------10-----5--5-5-5----3----3-------------e
--8-8-------8------8-----------------5---5-----5--3----3--------------b
----------------------------------------------------------------------g
----------------------------------------------------------------------D
----------------------------------------------------------------------A
----------------------------------------------------------------------E


            FA                    FAm
       sus pantalones ya roidos y unas  flores que ha cogido

----------------------------------------------------------------------e
-----------------1----------1------------1---1------------------------b
---------------2----2-------------------------------------------------g
-----------3-----------3----------------------------------------------D
-------3--------------------------3-----------------------------------A
----------------------------------------------------------------------E


          FA7                  SOL7
       adornando una camisa que ha cosido muy deprisa.

----------------1-----------------------------------------------------e
----------------------------------------------------3-----------------b
---------2-------------------5---2-----2p4----------------------------g
-------------3--------------------------------------------------------D
-----3----------------------------------------------------------------A
----------------------------------------------------------------------E


   DO             SOL          LAm                 MIm
       El loco maestro toca                con una dulcura loca

------------------3-------3-------------------------------------------e
-5-----5----------------3-----10------10--------12------12------------b
-----5----------------4-------------10----------------12--------------g
---5------------------------------10----------------14----------------D
----------------------------------------------------------------------A
----------------------------------------------------------------------E


         FA                      FAm
       y se posa una paloma en sus zapatos de goma

-------8----------8-----------8-----7-5----3--------------------------e
----------------------------------------------------------------------b
--------------10-----------10-----------------------------------------g
-----------10---------------------------------------------------------D
----------------------------------------------------------------------A
----------------------------------------------------------------------E


        FA7                  SOL7
       nadie rie nadie habla los que de ti se burlaban.

-3-3/5------1-------------7-5-----------------------------------------e
----------1-------1--------------------8----------------6--6/8--------b
--------2-------2-------------------5-----5-------------7--7/9--------g
---------------------------------5------------------------------------D
----------------------------------------------------------------------A
----------------------------------------------------------------------E


   DO              SOL                LAm                   MIm
       Se va recostando y habla                    de lo dura que es la tabla

----------------------------3-----------------------------------0-----e
---5---5-----5----------------3--------------5---------------0--------b
----------5-----5-4-----4-------4---5-----7---------------2-----------g
----------------------5----------------7----------5-2--2--------------D
-----3----------------------------------------------------------------A
----------------------------------------------------------------------E


         FA                          FAm
       que ha dejado de finjir no quiero verle sufrir

---------------------1-------------------------1----------------------e
------------------------1-------------------------1-------------------b
---------2-----------------2-------1-----------------1----------------g
-----------------3-------------------------3--------------------------D
-------------3-------------------------3------------------------------A
----------------------------------------------------------------------E


           FA7                SOL7
       contando aventuras y creyendose un violin




coro:


       DO       SOL     LAm       MIm
          toca para mi,     yo te quiero oir.
           FA                  DO
        quiero forma parte de tu locura
          FA                      SOL     figura C
        pondremos nuestras almas de partitura



     DO     SOL       LAm       MIm
        toca para mi,    yo te quiero oir.
          FA                   DO
        y que el ultimo latido de tu corazon,
         FA                            SOL   figura C
        sea la rosa que brota de la ultima nota.


       DO       SOL     LAm       MIm
          toca para mi,     yo te quiero oir.
           FA                  DO
        quiero forma parte de tu locura
          FA                      SOL     figura C
        pondremos nuestras almas de partitura


      DO     SOL      LAm       MIm
        toca para mi,    yo te quiero oir.
          FA                   DO
        y que el ultimo latido de tu corazon,
         FA                            SOL
        sea la rosa que brota de la ultima nota.


***Repetir Figura A(x2)****



FINAL  (OUTRO) **SE TOCA MUY SUAVEMENTE**

------10-8-10----10-8-10---10-8-10--------------------------------------e
------------------------------------------------------------------------b
----7----------7---------7------------10/8\10----10/8\10---10/8\10------g
--------------------------------------12/10\12---12/10\12--12/10\12-----D
------------------------------------------------------------------------A
------------------------------------------------------------------------E
Tap to rate this tab
 
# A B C D E F G H I J K L M N O P Q R S T U V W X Y Z