Song name
# A B C D E F G H I J K L M N O P Q R S T U V W X Y Z

Alejandro Sanz - Y Solo Se Me Ocurre Amarte tab

Help us improve GuitareTab! Take a short survey!
Artist: Alejandro Sanz
Title: Y Solo Se Me Ocurre Amarte
Intro Tab
Tabbed by Alex C.

regular tuning
E--------------------------------------|
B--12-12-10-10----------12-10-10-------|
G--------------12-12-11----------12-12-|
D--------------------------------------|
A--------------------------------------|
E--------------------------------------|

E-------------------------9-10-9--|
B-12-12-10-10-------10-12---------|
G-------------12-12---------------|
D---------------------------------|
A---------------------------------|
E---------------------------------|

E------------------------------------|
B-10-10---------------10-------------|
G-------12-12-11-11-9----12-12-11-11-|
D------------------------------------|
A------------------------------------|
E------------------------------------|

E----------------------------------|
B-10-10----------------10-12-13-12-|
G-------12-12-11-11-12-------------|
D----------------------------------|
A----------------------------------|
E----------------------------------|
Related for Y Solo Se Me Ocurre Amarte tab