Song name
# A B C D E F G H I J K L M N O P Q R S T U V W X Y Z

Alejandro Sanz - Labana tab

-----------------------------------------------------------------------------
Labana-Alejandro Sanz
-----------------------------------------------------------------------------

Tabbed by: peruboy_481@hotmail.com

Sanz is the best.
We need more of his tabs on this site!

This is from his newest album No es lo mismo

Intro

e---------------------------------------|
B---5---4-----5---3-----5---7-----5---3-|
G-6---5-----6---4-----6---8-----6---4---|
D---------------------------------------|
A---------------------------------------|
E---------------------------------------|

e---------------------------------------|
B---5---4-----5---3-----5---4-----5---3-|
G-6---5-----6---4-----6---5-----6---4---|
D---------------------------------------|
A---------------------------------------|
E---------------------------------------|
Tap to rate this tab
# A B C D E F G H I J K L M N O P Q R S T U V W X Y Z