Guitaretab - guitar tabs
Song name
# A B C D E F G H I J K L M N O P Q R S T U V W X Y Z

Alejandro Silva - Metalhimno tab

Bueno ak va el metal himno por el maestro... el unico Alejandro Silva
Pura Calidad Chilena!!!!!!!
Pq? uno comete tantos errores que lo bajan a lo ms profundo... solo
quiero esta cerca de alguien que esta lejos en el mismo lugar!!!

Intro Bateria 00:25

0:27 Entrada de Silva
E|---8-8-7-5-5----------------5--------------------------------------------|
B|-/8---------8-6-8-6-5--5-6-8-6-5-6-8-5-----------------------------------|
G|----------------------7---------------7----------------------------------|
D|---------------------------------------5-5~~-----------------------------|
A|-------------------------------------------------------------------------|
E|-------------------------------------------------------------------------|

E|---8-8-7-5-5---------8-8-7-5-7-8-5---------------------------------------|
B|--8---------8-6-8-6-5--------------8-8~~---------------------------------|
G|-------------------------------------------------------------------------|
D|-------------------------------------------------------------------------|
A|-------------------------------------------------------------------------|
E|-------------------------------------------------------------------------|

0:40
E|-----------------------------6-----6~~-----------------------------------|
B|---/8-8-9-8-6-8-9-8-6-9-9-9-9-9-8-9--------------------------------------|
G|-------------------------------------------------------------------------|
D|-------------------------------------------------------------------------|
A|-------------------------------------------------------------------------|
E|-------------------------------------------------------------------------|

E|-----8-8p6----------------------------5-7-8-5~~--------------------------|
B|---8------8p6(*2)-8b-6-5~~-6-5-6(*2)-8-----------------------------------|
G|-------------------------------------------------------------------------|
D|-------------------------------------------------------------------------|
A|-------------------------------------------------------------------------|
E|-------------------------------------------------------------------------|
[ Tab from: http://www.guitaretab.com/a/alejandro-silva/66625.html ]
                                                             Barridos!!!
E|--8-10-11-8--10-11-8---------7-8-10-10-7-8-7-8-10-7--------7-12-7--------|
b|-----------11-------11-9-8-6------------------------------8------8-------|
B|----------------------------8----------------------------9--------9------|
G|--------------------------------------------------------9----------9-----|
D|----------------------------------------------------7-10------------10-7-|
A|-------------------------------------------------------------------------|

E|---7-8-10-10-7-8-7-8-10-7-------5-6(*3)-5vb---5-5-7-8-8-8-7vb------------|
B|-------------------------5-6-8-8-----------6-8---------------------------|
G|-------------------------------------------------------------------------|
D|-------------------------------------------------------------------------|
A|-------------------------------------------------------------------------|
E|-------------------------------------------------------------------------|

E|--7-5-7-5-5---------8-8-7-5-7-8-5-5-7-----------------8-7-8-8------------|
B|---------8-8-6-8-6-5-------------8---8-------6-8-8-8~~-------------------|
G|--------------------------------------5-7-8-8----------------------------|
D|-------------------------------------------------------------------------|
A|-------------------------------------------------------------------------|
E|-------------------------------------------------------------------------|
                                          Barridos!!!
E|---13-13-17-13-13-15-12-12-13-----------9-14-9---------------------------|
B|--------------------------------------10------10-------------------------|
G|------------------------------------11----------11-----------------------|
D|----------------------------------11--------------11-----(Todo*2)--------|
A|------------------------------9-12------------------12-9-----------------|
E|-------------------------------------------------------------------------|

E|-------------------------------------------------------------------------|
B|---13-13-13-17b-15~~~~~--------------------------------------------------|
G|-------------------------------------------------------------------------|
D|-------------------------------------------------------------------------|
A|-------------------------------------------------------------------------|
E|-------------------------------------------------------------------------|

Y Ahi esta casi 100% sin fallas, xD espero q le guste y este tema va
dedicado a todos los guitarristas que quieren superarse.
Related for Metalhimno tab