Song name
# A B C D E F G H I J K L M N O P Q R S T U V W X Y Z

Alejandro Silva - Neopangea tab

Neopangea 


Alejandro Silva
Alejandro
By Anarion




E||-------------------|----------------------|----------------------|
B||-------------------|----------------------|--------------10------|
G||--7----------------|--5/7-------5----9----|--7---------------7---|
D||-------------------|----------------------|----------------------|
A||-------------------|----------------------|----------------------|
E||-------------------|----------------------|----------------------|



------------------------|--------------------|--------------------------|
--8/10-------8----13----|--15----------------|--13h15-------13----17----|
------------------------|--------------------|--------------------------|
------------------------|--------------------|--------------------------|
------------------------|--------------------|--------------------------|
------------------------|--------------------|--------------------------|



------------------------|--------------------|-----------------------------|
--15--------10-------11-|--10----------------|-----------------------------|
------------------------|--------------------|--------10-12-10/12-----9----|
------------------------|--------------------|-----10----------------------|
------------------------|--------------------|-----------------------------|
------------------------|--------------------|-----------------------------|



-----------------------------15-13-------|
------------------------13---------13----|
----------12-14-12/14-----------------12-|
--12---12--------------------------------|
-----------------------------------------|
-----------------------------------------|



---------------------------------------|--------------------------------|
-------13-------10-13------------------|--------------------------------|
----------10-12-------10/12----10------|--12/14-------------------------|
--15--------------------------------10-|--------------------14-10----15-|
---------------------------------------|--------------------------12----|
---------------------------------------|--------------------------------|



-----------------------------------|-------------------------------------|
-----------------------------------|--10---15-13-11-13t8-10-8---10---11--|
---------12b12------------------10-|-------------------------------------|
--10-------------------------12----|-------------------------------------|
-----12-------------------12-------|-------------------------------------|
-----------------------------------|-------------------------------------|



---------------------------------|
--10-10--------------------------|
---------10---7--14-12--12-------|
-----------------------------14--|
---------------------------------|
---------------------------------|



---------------------------------------15---13-12----12-|
---------------------------15----18---------------15----|
---------------14----17---------------------------------|
--14---12-12------12----12----12----12------------------|
--------------------------------------------------------|
--------------------------------------------------------|



--13-15-18/20-18h17----17-18-20-17-18-20h18h17----17----17~---|
--------------------------------------------------------------|
--------------------19-------------------------19-------------|
--------------------------------------------------------------|
--------------------------------------------------------------|
--------------------------------------------------------------|



-------------------------------|-----------------------------------|
-------------------------------|--------------------------10-------|
--10---10---10------10-12-10-9-|--10---10---10----9-10-12----12-10-|
-------------------------------|-----------------------------------|
-------------------------------|-----------------------------------|
-------------------------------|-----------------------------------|



---------------------------|-------------------------------|
---------------------------|-------------------------------|
--9---9---9------9-10-9----|--9h10---------------9-10-9----|
------------------------12-|--------12---12-------------12-|
---------------------------|-------------------------------|
---------------------------|-------------------------------|



--------------------------------|-----------------------------------|
--------------------------------|--------------------------10-------|
--10---10---10-----9-10-12-10-9-|--10---10---10----9-10-12----12-10-|
--------------------------------|-----------------------------------|
--------------------------------|-----------------------------------|
--------------------------------|-----------------------------------|



-------------------------------|------------------------|
-------------------------------|------------------------|
--9---9---9-------9-10-12-10-9-|--10--------------------|
---------------12--------------|-------12---12----------|
-------------------------------|------------------------|
-------------------------------|------------------------|



------------------9----17~---------|----------------------------------|
---------------10---10---------17--|--18r-----18----17----20-18-17----|
--9----------9---------------------|-------------------19----------19-|
----11----11-----------------------|----------------------------------|
-------12--------------------------|----------------------------------|
-----------------------------------|----------------------------------|



------------------------|------------10-15-10----------------|
--------------------15r-|-------15------------10-------------|
--19h21~----------------|------------------------10----------|
------------------------|---------------------------12-------|
------------------------|------------------------------12----|
------------------------|---------------------------------13-|



--------12-------12-------17-------12-------12----|
-----14-------14-------14-------14-------14-------|
--14-------14-------14-------14-------14-------14-|
--------------------------------------------------|
--------------------------------------------------|
--------------------------------------------------|



--------13-------13-------18-------13-------13----|
-----15-------15-------15-------15-------15-------|
--15-------15-------15-------15-------15-------15-|
--------------------------------------------------|
--------------------------------------------------|
--------------------------------------------------|



--------15-------15-------20-------15-------15----|--------------------------|
-----17-------17-------17-------17-------17-------|--20r-----18~-----18--17--|
--17-------17-------17-------17-------17-------17-|--------------------------|
--------------------------------------------------|--------------------------|
--------------------------------------------------|--------------------------|
--------------------------------------------------|--------------------------|



------------------------|--------------------------|------------------------|
--20b-----20------18----|----17------20r---18--17--|--18b-----18b-----18r---|
------------------------|--------------------------|------------------------|
------------------------|--------------------------|------------------------|
------------------------|--------------------------|------------------------|
------------------------|--------------------------|------------------------|



------------------------|------------------------|--------17r-----------|
------18----17----------|--20r-----20------18~---|------------------20--|
------------------------|------------------------|----------------------|
----------------19------|------------------------|----------------------|
------------------------|------------------------|----------------------|
------------------------|------------------------|----------------------|



----------------------|-----15-18h15-------17h12-------------------12-13-|
--18/-20~-------------|--18----------17----------13----15-13----15-------|
----------------------|-----------------17----------14-------14----------|
----------------------|--------------------------------------------------|
----------------------|--------------------------------------------------|
----------------------|--------------------------------------------------|



--17h13h12----------------------------------17-18-|
-----------15----------------------------18-------|
--------------14-12----------------14-19----------|
--------------------15----------15----------------|
-----------------------17-12-17-------------------|
--------------------------------------------------|



--22h18-17----------------------------13-18-17-13-|
-----------18----------------------15-------------|
--------------19----------------15----------------|
-----------------20-15-------15-------------------|
-----------------------17-13----------------------|
--------------------------------------------------|



--15h12-------------------18h15----------------------|
--------13----------------------17-------------------|
-----------12----------------------17-12-15-12-------|
--------------14-------------------------------14----|
-----------------15-10----------------------------15-|
-----------------------12----------------------------|



-----------------------------------------------------8-13h8-|
--------------------------------------10-13h10----10--------|
-----------------------10-14h10----10----------10-----------|
--------10-15h10----10----------10--------------------------|
-----12----------12-----------------------------------------|
--13--------------------------------------------------------|



--12h10------17h12----------------------14-15-17-|
--------10---------15----------------15----------|
-----------9----------14----------14-------------|
-------------------------16----16----------------|
----------------------------17-------------------|
-------------------------------------------------|



--18h15----------------------------------15-17-18-|
--------15----------------------------15----------|
-----------15----------------------15-------------|
--------------17----------------17----------------|
-----------------17----------17-------------------|
--------------------18-15-18----------------------|



--17h13----------------------------------13-15-17-|
--------13----------------------------13----------|
-----------14----------------------14-------------|
--------------15----------------15----------------|
-----------------15h12----12h15-------------------|
-----------------------13-------------------------|



--18h15----------------------------------15-17-18-|--------------------|
--------16----------------------------16----------|--15----------------|
-----------15----------------------15-------------|--------------------|
--------------17----------------17----------------|--------------------|
-----------------18h13----13h18-------------------|--------------------|
-----------------------15-------------------------|--------------------|



--------------------|------------------------|--------------------|
--------------------|----------13--------11--|--------10----------|
--14----------------|--12--------------------|--------------------|
--------------------|------------------------|--------------------|
--------------------|------------------------|--------------------|
--------------------|------------------------|--------------------|



------------------------|----------------------|--------------------------|
------------------------|----------------------|--------------------------|
--11------12------14----|--15------10----------|--14------10------14--12--|
------------------------|----------------------|--------------------------|
------------------------|----------------------|--------------------------|
------------------------|----------------------|--------------------------|



----------------8-------8-10----8-|
--------8-10-11---10-11------11---|
----------------------------------|
----------------------------------|
----------------------------------|
----------------------------------|



--10-11-8-10-11-13-10-11-13-15-15--14----------------|
--------------------------------------16-15----------|
--------------------------------------------17-15-14-|
-----------------------------------------------------|
-----------------------------------------------------|
-----------------------------------------------------|



-----------15--14----------------15b--15-14-------------------|
------------------16-15---------------------16-15-------------|
------------------------17-15-14------------------17-15-14----|
--17-16-13-------------------------------------------------17-|
--------------------------------------------------------------|
--------------------------------------------------------------|



--------------------------------------------------------------------------|
--------------------------------------------------------------------------|
--17-15-14----------------------------------------------------------------|
-----------17-16-13-16-17-------------------------------------------------|
--------------------------18-17-15-17-15----------------------------------|
-----------------------------------------18-17-15-14-12-14-15-18-15-14-11-|



--------------------------|----------------------|-----------------------------|
--------------------------|----------------------|-----------------------------|
--------------------------|----------------------|-----------------------------|
----------10b-10--10~-----|--8------10--------7--|-----------------------------|
--------------------------|--6------8---------5--|----5-5-5--5-5-5--5-5-5--5-5-|
--10----------------------|----------------------|-----------------------------|



-----------15-18-----------17-20----20b-|
--------16--------------18--------------|
-----15--------------17-----------------|
--17--------------19--------------------|
----------------------------------------|
----------------------------------------|



----20-18-17-18-20-18-17-18-17----------|----------------------|
-------------------------------20-18~---|----------------------|
----------------------------------------|----------------------|
----------------------------------------|--8------10--------7--|
----------------------------------------|--6------8---------5--|
----------------------------------------|----------------------|



------------------------------|------------------------|
-------------------------18b--|------22----------18-20-|
------------------------------|------------------------|
------------------------------|------------------------|
----5-5-5--5-5-5--5-5-5--5--5-|------------------------|
------------------------------|------------------------|



--17------------------------------------|
-----20-18-20-18------------------------|
-----------------17-14------------------|
-----------------------15---------------|
--------------------------15------------|
-----------------------------17-13~-----|



--15----------------15--17----------------17---------|
-----16----------16--------18----------18--------18b-|
--------15----15--------------17----17---------------|
-----------17--------------------19------------------|
-----------------------------------------------------|
-----------------------------------------------------|



--------------------------||
------17------20b---20b---||
----------19--------------||
--------------------------||
--------------------------||
--------------------------||
 
 
 
Tap to rate this tab
# A B C D E F G H I J K L M N O P Q R S T U V W X Y Z