Song name
# A B C D E F G H I J K L M N O P Q R S T U V W X Y Z

Aleks Syntek - Lindas Criaturitas tab

-------------------------------------------------------------------------------
			LINDAS CRIATURITAS - Aleks Syntek
-------------------------------------------------------------------------------
Tabbed by: Rafa88offspring
Email: rafa88offspring@hotmail.com

Tuning: Standard (EADgbe)

Intro/Verso
Guitarra 1
e|-0-0000-0-0000-0-0000--------|
B|-0-0000-0-0000-5-5555--------|
G|-1-1111-2-2222-4-4444--------|
D|-2-2222-2-2222-2-2222-2---2--|
A|-2-2222-2-2222-2-2222---2----|
E|-0-0000-0-0000-0-0000--------|

Guitarra 2 (Teclado)
e|------------------------------|
B|-10-9---9---------------------|
G|------9---9---9---------------|
D|------------9---9-7-6-7-6-----|
A|--------------------------7---|
E|------------------------------|

Coro/Puente
Guitarra 2
e|--------------------------------------------|
B|-----------9-10-9-10-12-10-12-10-9----------|
G|------9-11-------------------------11-9-11--|
D|-9-11---------------------------------------|
A|--------------------------------------------|
E|--------------------------------------------|

| /  slide up
| \  slide down
| h  hammer-on
| p  pull-off
| ~  vibrato
| +  harmonic
| x  Mute note
===============================================================================
Tap to rate this tab
# A B C D E F G H I J K L M N O P Q R S T U V W X Y Z