Song name
# A B C D E F G H I J K L M N O P Q R S T U V W X Y Z

Aleks Syntek - Pise La Tierra tab

-------------------------------------------------------------------------------
			PISE LA TIERRA - Aleks Syntek
-------------------------------------------------------------------------------
Tabbed by: Rafa88offspring
Email: rafa88offspring@hotmail.com

Tuning: Standard (EADgbe)

Mi tercer tab de Aleks Syntek, del discazo de Lugar Secreto.

Intro/Primeros Versos
e|-----------------------------|
B|-----------------------------|
G|-----------------------------|
D|-----------------------------|
A|-5-55-5-55-5-5-6-66-6-6-6-8--|
E|-6-66-6-66-6-6-6-66-6-6-6-6--|

"Y busque respuestas donde nadie busco"
e|---------------------------------|
B|---------------------------------|
G|----------888888888-----------8--|
D|-33333333-888888888-333333333-8--|
A|-33333333-666666666-333333333-6--|
E|-11111111-----------111111111----|

Se empieza el verso igual que antes pero cuando empieza la voz se toca

e|--------------------|
B|--------------------|
G|----------88888888--|
D|-88888888-88888888--| Durante lo que resta del verso
A|-88888888-66666666--|
E|-66666666-----------|

Despues del segundo pre-coro
e|-------------------------------------------|
B|------11---------11------9-8h9p8----9------|
G|---10----10---10----10-----------10--10-8--|
D|-8----------8----------8-------------------|
A|-------------------------------------------|
E|-------------------------------------------|

"Esperare hasta que te enteres que te quiero"
e|--------------------------------------|
B|--------------------------------------|
G|-66666666----------55555555-----------|
D|-66666666-66666666-55555555-44444444--|
A|-44444444-66666666-33333333-44444444--| mantienes el ultimo acorde en lo 
E|----------44444444----------22222222--| que sigue


| /  slide up
| \  slide down
| h  hammer-on
| p  pull-off
| ~  vibrato
| +  harmonic
| x  Mute note
===============================================================================
Tap to rate this tab
# A B C D E F G H I J K L M N O P Q R S T U V W X Y Z