Song name
# A B C D E F G H I J K L M N O P Q R S T U V W X Y Z

Alela Diane - Tatted Lace tab

-------------------------------------------------------------------------------
                             Tatted Lace - Alela Diane
-------------------------------------------------------------------------------
Tabbed by: reedoo

Tuning: Standard

Capo on 3rd

p = right hand thumb 
i = right hand index finger
m = right hand middle finger
a = right hand ring finger


INTRO (play twice)

  C                                  G
e|--------------------3---0---------|------------------3---0-----------------|
B|--------1-------1-----------3---1-|------0-------0-----------3---1---------|
G|----0-------0---------------------|--0-------0-----------------------------|
D|------2-------2-------2-------2---|----------------------------------------|
A|--3-------3-------3-------3-------|----2-------2-------2-------2-----------|
E|----------------------------------|-3-------3-------3-------3--------------|   
    p i p m p i p m p a p a p m p i   p i p m p i p m p a p a p m p i 


  F                                  Am
e|--------1---------------1---------|-------------------3---0----------------|
B|----------------1---------------1-|-------1-------1-----------3---1--------|
G|----2-------2-------2-------2-----|---2-------2----------------------------|
D|------3-------3-------3-------3---|-----2-------2-------2-------2----------|
A|--3-------3-------3-------3-------|-0-------0-------0-------0--------------|
E|----------------------------------|----------------------------------------|
    p i p a p i p m p i p a p i p m   p i p m p i p m p a p a p m p i



VERSE & CHORUS 

  C                                  G
e|----------------------------------|----------------------------------------|
B|--------1-------1-------1-------1-|------0-------0-------0-------0---------|
G|----0-------0-------0-------0-----|--0-------0-------0-------0-------------|
D|------2-------2-------2-------2---|----------------------------------------|
A|--3-------3-------3-------3-------|----2-------2-------2-------2-----------|
E|----------------------------------|-3-------3-------3------3---------------|
    p i p m ...                       p i p m ...


  F                                  Am
e|----------------------------------|----------------------------------------|
B|--------1-------1-------1-------1-|-------1-------1-------1-------1--------|
G|----2-------2-------2-------2-----|---2-------2-------2-------2------------|
D|------3-------3-------3-------3---|-----2-------2-------2-------2----------|
A|--3-------3-------3-------3-------|-0-------0-------0-------0--------------|
E|----------------------------------|----------------------------------------|
    p i p m ...                       p i p m ...



LYRICS

Gold around those fingers shown
Bound for to carry home
Fond of the flattest field
But you know there are bones buried deep down below

Tatted lace frail figure graced
That has since been torn and stained
Tatted lace frail figure graced
That has since been torn and stained
And put, and put so far away, oh, so far away

Novels we don't write
Hearts been lost in flight
Skin in the black of night
Love is a sinking kite

Tatted lace frail figure graced
That has since been torn and stained, oh
Tatted lace frail figure graced
That has since been torn and stained
And put, and put so far away, oh, so far away

Gold around those fingers shown
Bound for to carry home
Suitcase filled with stones
Snow keeps me alone

Suitcase filled with stones
Snow keeps me alone, all alone
All alone, all alone
All alone, all alone, all alone
Tap to rate this tab
# A B C D E F G H I J K L M N O P Q R S T U V W X Y Z