Song name
# A B C D E F G H I J K L M N O P Q R S T U V W X Y Z

Alela Diane - Take Us Back tab

----------------------------------------------

TAKE US BACK

----------------------------------------------

Tabbed by: Michel C.
e-Mail: mop_pil@hotmail.de
Tuning: Standard (EADGBe)


     e|-1---------|
     B|-3---------|
     G|-2---------|
Dm   D|-0---------|
     A|-----------|
     E|-----------|

     e|-----------|
     B|-1---------|
     G|-2---------|
Am   D|-2---------|
     A|-0---------|
     E|-----------|

     e|-3---------|
     B|-3---------|
     G|-0---------|
G    D|-0---------|
     A|-2---------|
     E|-3---------|

Verse:

        Dm          Am          G
e|-----1----1---------------------------------|
B|------------------1-----1------3-----3------|
G|-----2----2---------------------------------|  <-- repeat 'til Chorus
D|--0-----0---------2-----2-------------------|
A|---------------0-----0---------2-----2------|
E|----------------------------3-----3---------|


Chorus:

Basically the same pattern as the Verse, but I prefer to strum the Chords instead of 
fingerpicking them (makes it sound even more intense).

        Dm          Am          G


That's it folks! Enjoy it  (rating would be pleasant too ;-)  )


Optional: If you're willing to include a second guitar track you may want to play the 
vocals at the very ending of the song  (about 4:10) on your guitar as well (preferably on 
a western guitar).

e|-----------------------------------------------------------------|
B|-----------------------------------------------------------------|
G|--5~---4~---2~----------9~---7~---5-4-5--2~----------------------|
D|-----------------------------------------------------------------|
A|-----------------------------------------------------------------|
E|-----------------------------------------------------------------|


| /  slide up
| \  slide down
| h  hammer-on
| p  pull-off
| ~  vibrato
| +  harmonic
| x  Mute note
Tap to rate this tab
 
# A B C D E F G H I J K L M N O P Q R S T U V W X Y Z