Song name
# A B C D E F G H I J K L M N O P Q R S T U V W X Y Z

Alela Diane - Nothing I Can Do tab

Title: Nothing I Can Do
Artist: Alela Diane
Album: About Farewell

Tabbed by: Tom Walter - walter dot tom at gmail dot com

Tuning: DADGBE (Drop D)
Capo: 4th Fret

Legend:
h - hammer on/pull off
v - brush up
% - repeat previous bar

  Verse                                         v                          x4   
E ||------------|-------------|-----------------0----|---------------------|||
B ||----0--0----|-----0--0----|--------0--------0----|--------0-----0------|||
G ||o---0--0----|-----0--0----|--------0--------0----|--------0-----0-----o|||
D ||o---0-------|-----2-------|--------2--------0----|--------2-----------o|||
A ||----2-------|--0----------|--------2--------0----|--0h-2--2------------|||
D ||-5----------|-------------|--2--------------0----|--0h-2---------------|||

Chorus                             x3  Chorus alt end v       Bridge                 
----0--0----|----|-----0--0----|---||--------0-----0--0---||----0--0----|
----0--0----|----|-----0--0----|---||--------0-----0--0---||----0--0----|
o---0-------|-%--|-----0-------|%-o||--------0--------0---||o---0--0----|
o---2-------|----|-----4-------|--o||--------4--------2---||o---2--2----|
-3----------|----|--5----------|---||--5--------------2---||----2--0----|
------------|----|-------------|---||-----------------2---||----2--0----|

                                             v   x2
-----0--0----|-----0--0----|--0--------------0---|||
-----0--0----|-----0--0----|--0--------------0---|||
-----0--0----|-----0--0----|--0--------------0--o|||
-----2--2----|-----2--2----|--2--------------2--o|||
--2--2--0----|--2--2--0----|--2--------------2---|||
--2--2--0----|--2--2--0----|--2--------------2---|||
Tap to rate this tab
# A B C D E F G H I J K L M N O P Q R S T U V W X Y Z