Alert The Sky - What Happened Happened tab

song: what happened, happened
artist: alert the sky
album: finale ep
website: myspace.com/alertthesky

tuning (low to high) AEADF#B

the timing may seem weird because I didn't know the best way to space it 
but its all there

|--------------------|    |-----------------------------------------|
|--------------------|    |-----------------------------------------|
|--------------------| 3x |-----------------------------------------| 1x
|-0-0-0-5-5-4-4-1-1~-|    |-0-0-0-5-5-4-4-1---1-1---1-1---1-1---1-1-|
|-0-0-0-6-6-5-5-1-1~-|    |-0-0-0-6-6-5-5-1-0-1-1-0-1-1-0-1-1-0-1-1-|
|-0-0-0-5-5-4-4-1-1~-|    |-0-0-0-5-5-4-4-1-0-1-1-0-1-1-0-1-1-0-1-1-|
                                            .     .     .     .      

|-----------------------------------------|    \  
|-----------------------------------------|     \   
|-----------7-5-8-8---------12-11-7-8-5-7-|      \  
|-0-0-0-0-0-x-x-x-x-0-0-0-0--x--x-x-x-x-x-|       \  
|-0-0-0-0-0-5-3-6-6-0-0-0-0-10--9-5-6-3-5-|        \  
|-0-0-0-0-0---------0-0-0-0---------------|         \  
                                                     \ 3x
                                                     /
|---------------------------------------------|     /
|---------------------------------------------|    /
|-----------7-5-8-8---------------------------|   /
|-0-0-0-0-0-x-x-x-x-0-5-5-0-1-1-0-4-4-0-5-4-1-|  /
|-0-0-0-0-0-5-3-6-6-0-5-5-0-1-1-0-4-4-0-5-4-1-| / 
|-0-0-0-0-0---------0-5-5-0-1-1-0-4-4-0-5-4-1-|/


|---------------------------------------------------------|\
|---------------------------------------------------------| \
|---------------------------------------------------------|  \
|-12-12-12-xxxxx-11-11-11-x-11\-8-8-8-8-8-8-7-0-1---0-4---|   \
|--8--8--8-xxxxx--7--7--7-x--7\-5-5-5-5-5---------3-----6-|    \ 
|--8--8--8-xxxxx--7--7--7-x--7\-5-5-5-5-5-----------------|     \
                                                                 \ 2x
                                                                 /  
|---------------------------------------------|                 /  
|---------------------------------------------|                /  
|---------------------------------------------|               /  
|-4-4-4-4-4--4-4-4-4-4--7-7-7-7-7-8-8-8-7-7-7-|              /  
|-1-1-1-1-1--1-1-1-1-1--4-4-4-4-4-4-4-4-4-4-4-|             /  
|-1-1-1-1-1--1-1-1-1-1--4-4-4-4-4-4-4-4-4-4-4-|            /  


|---------|
|---------|
|-5-5-5-5-| 1x
|-4-4-4-4-|
|-3-3-3-3-|
|-4-4-4-4-|

I've gotten this far and I'm trying the figure out the timing of the breakdown 
(which basically uses the chord above) and the rest of the riffs and I'll post it soon

enjoy
Tap to rate this tab
 
# A B C D E F G H I J K L M N O P Q R S T U V W X Y Z