Song name
# A B C D E F G H I J K L M N O P Q R S T U V W X Y Z

Alesana - Obsession Is Such An Ugly Word tab

-------------------------------------------------------------------------------
		  Obsession Is Such An Ugly Word - Alesana
-------------------------------------------------------------------------------

Tabbed by: Wenkz
Email: franz_ignacio21@yahoo.com

Tuning: Dropped D

 THERE IT IS.. GOODLUCK TABBING.. Just listen to the song very carefully.. thanks.. pls rate..
 I'll be working on "All Night Dance Parties In The Underground Palace" and "Seduction" 
Watch out for it.. :)

NOTE- notes marked by an ASTERISK below them means PALM MUTE

Intro: Guitar 1 (Many Times)
e|--------------------------------------------------------|
B|--------------------------------------------------------|
G|-----777-77777------------------------------------------|
D|-----777-77777-77-888-88888-----------------------------|
A|-----555-55555-77-888-88888-----------------------------|
D|---------------77-888-88888-8\--------------------------|
       Guitar 2 (Enters After Guitar 1 Does Above For The 3rd Time)
e|---------------------------------------------------------------------------|
B|---------------------------------------------------------------------------|
G|-----77777777-9-7-9-10-12-1010101010101010-141414\-------------------------|
D|-----xxxxxxxx-x-x-x-x--x--x-x-x-x-x-x-x-x--x-x-x-\-------------------------|
A|-----55555555-7-5-7-8--10-8-8-8-8-8-8-8-8--121212\-------------------------|
D|---------------------------------------------------------------------------|

Verse: Guitar 1 (Many Times)
e|---------------------------------------------------------------------------|
B|---------------------------------------------------------------------------|
G|---------------------------------------------------------------------------|
D|-----88888888-10101010-000000----------------------------------------------|
A|-----88888888-10101010-000000----------------------------------------------|
D|-----88888888-10101010-000000----------------------------------------------|

Pre-Chorus: Guitar 1
e|---------------------------------------------------------------------------|
B|---------------------------------------------------------------------------|
G|---------------------------------------------------------------------------|
D|----10-8-7-8-10-11-10-8-10-8-7-8-10-11-10-8-10-7-10/12/14-12---------------|
A|---------------------------------------------------------------------------|
D|---------------------------------------------------------------------------|

e|---------------------------------------------------------------------------|
B|---------------------------------------------------------------------------|
G|-------------------7\5-7\5-7\5-7\5-7\5-7\5-7-------------------------------|
D|----8-10-12-7-8-10-x\x-x\x-x\x-x\x-x\x-x\x-x-------------------------------|
A|----8-10-12-7-8-10-5\3-5\3-5\3-5\3-5\3-5\3-5-------------------------------|
D|----8-10-12-7-8-10---------------------------------------------------------|

CHORUS: Guitar 1
e|----------------------------------------------------------------------------------------|
B|----------------------------------------------------------------------------------------|
G|----------------------------------------------------------------------------------------|
D|---121212121212-7-7-7-7-7-8888888-10-10-10-10-10-555555-7-7-7-7-7-888888-10-10-10-10-10-|
A|---121212121212-7-7-7-7-7-8888888-10-10-10-10-10-555555-7-7-7-7-7-888888-10-10-10-10-10-|
D|---121212121212-7-7-7-7-7-8888888-10-10-10-10-10-555555-7-7-7-7-7-888888-10-10-10-10-10-|

e|--------------------------------------------------------|
B|--------------------------------------------------------|
G|-----777-77777------------------------------------------|
D|-----777-77777-77-888-88888-----------------------------|
A|-----555-55555-77-888-88888-----------------------------|
D|---------------77-888-88888-8\--------------------------|

SCREAM PART
e|---------------------------------------------------------------------------|
B|---------------------------------------------------------------------------|
G|---------------------------------------------------------------------------|
D|---12-12-12-12-12-12-12-12-8-8-8-8-10-10-10-10-----------------------------|
A|---12-12-12-12-12-12-12-12-8-8-8-8-10-10-10-10-----------------------------|
D|---12-12-12-12-12-12-12-12-8-8-8-8-10-10-10-10-----------------------------|

e|---------------------------------------------------------------------------|
B|---------------------------------------------------------------------------|
G|---------------------------------------------------------------------------|
D|---12-12-12-12-12-12-12-12-8-8-8-8-10-10-10-10-12-10-8-7-------------------|
A|---12-12-12-12-12-12-12-12-8-8-8-8-10-10-10-10-12-10-8-7-------------------|
D|---12-12-12-12-12-12-12-12-8-8-8-8-10-10-10-10-12-10-8-7-------------------|

Pre-Chorus: Guitar 1
e|---------------------------------------------------------------------------|
B|---------------------------------------------------------------------------|
G|---------------------------------------------------------------------------|
D|----10-8-7-8-10-11-10-8-10-8-7-8-10-11-10-8-10-7-10/12/14-12---------------|
A|---------------------------------------------------------------------------|
D|---------------------------------------------------------------------------|

e|---------------------------------------------------------------------------|
B|---------------------------------------------------------------------------|
G|-------------------7\5-7\5-7\5-7\5-7\5-7\5-7-------------------------------|
D|----8-10-12-7-8-10-x\x-x\x-x\x-x\x-x\x-x\x-x-------------------------------|
A|----8-10-12-7-8-10-5\3-5\3-5\3-5\3-5\3-5\3-5-------------------------------|
D|----8-10-12-7-8-10---------------------------------------------------------|

CHORUS: Guitar 1
e|----------------------------------------------------------------------------------------|
B|----------------------------------------------------------------------------------------|
G|----------------------------------------------------------------------------------------|
D|---121212121212-7-7-7-7-7-8888888-10-10-10-10-10-555555-7-7-7-7-7-888888-10-10-10-10-10-|
A|---121212121212-7-7-7-7-7-8888888-10-10-10-10-10-555555-7-7-7-7-7-888888-10-10-10-10-10-|
D|---121212121212-7-7-7-7-7-8888888-10-10-10-10-10-555555-7-7-7-7-7-888888-10-10-10-10-10-|

SCREAM PART AGAIN
Guitar 1                                        End With:
e|--------------------------------------------|-------------------------------|
B|--------------------------------------------|-------------------------------|
G|--------------------------------------------|-------------------------------|
D|---0-0-00000-0-0-00000-0-0-00000-0-0-00000--|--1~---------------------------|
A|---0-0-00000-0-0-00000-0-0-00000-0-0-00000--|--1~---------------------------|
D|---0-0-00000-0-0-00000-0-0-00000-0-0-00000--|--1~---------------------------|

Guitar2 (Many Times)
e|---------------------------------------------------------------------------|
B|-----5---5---6---6---8---8---5---5-----------------------------------------|
G|-------6---6---6---6---6---6---6---6---------------------------------------|
D|---------------------------------------------------------------------------|
A|---------------------------------------------------------------------------|
D|---------------------------------------------------------------------------|

BREAKDOWN:
e|---------------------------------------------------------------------------|
B|---------------------------------------------------------------------------|
G|---------------------------------------------------------------------------|
D|----0-0-0-0-0-0-0-0-0-0-0-0-0----------------------------------------------|
A|----0-0-0-0-0-0-0-0-0-0-0-0-0----------------------------------------------|
D|----0-0-0-0-0-0-0-0-0-0-0-0-0----------------------------------------------|

BASS KICKS IN

LOOOONG Outro:
Guitar 1 (With Some P.M.s , u decide :P)
e|---------------------------------------------------------------------------|
B|---------------------------------------------------------------------------|
G|---------------------------------------------------------------------------|
D|----0-0-0-0-0-0-0-0-0-0-0-0-0-1~-1~-5-8-1-0--------------------------------|
A|----0-0-0-0-0-0-0-0-0-0-0-0-0-1~-1~-5-8-1-0--------------------------------|
D|----0-0-0-0-0-0-0-0-0-0-0-0-0-1~-1~-5-8-1-0--------------------------------|

Guitar 2 (Not Sure But This Is What I Do) -- REPEAT MANY TIMES
e|----12p8-8---8---8---------------------------------------------------------|
B|-----------8---8---8-------------------------------------------------------|
G|---------------------------------------------------------------------------|
D|---------------------------------------------------------------------------|
A|---------------------------------------------------------------------------|
D|---------------------------------------------------------------------------|

That's It, Thanks, Don't Forget To VOTE! :)


| /  slide up
| \  slide down
| h  hammer-on
| p  pull-off
| ~  vibrato
| +  harmonic
| x  Mute note
===============================================================================
Tap to rate this tab
# A B C D E F G H I J K L M N O P Q R S T U V W X Y Z