Song name
# A B C D E F G H I J K L M N O P Q R S T U V W X Y Z

Alesana - Obsession Is Such An Ugly World tab

ei k onda
pues aki el intro de esta rola k me peso mucho
i de k no la e sakado toda por k no e tenido mucho tiempo
pero bueno aki se las dejo
i si no esta vien pues aver kien la koriije

----------------------------------------------|
----------------------------------------------|
----------------------------------------------|
-12-12-12-----------12-12-12---7-7----8-8-8---|
-12-12-10-----------12-12-12---7-7----8-8-8---|
-10-10-10---10-10---10-10-10---5-5----6-6-6---|


------------------------|
------------------------|
------------------------|
--------8-8-8---5-5-----|
--------8-8-8---5-5-----|
-6-6----6-6-6---3-3-----|

-----------------------------------------------|
-----------------------------------------------|
-----------------------------------------------|
-12-12-12---12-12-12---7-7----8-8-8------------|
-12-12-10---12-12-12---7-7----8-8-8------------|
-10-10-10---10-10-10---5-5----6-6-6------------|


----------------|
----------------|
----------------|
8-8-8---5-5-----|
8-8-8---5-5-----|
6-6-6---3-3-----|

guitarra 1

---------------|   se repite
---------------|   no se kuantas veses
---------------|   cheken el tiempo
----12---------|
----12---------|
----10---------|

guitarra 2

--------  --------------------------|
--------  --------------------------|     pero la segunda ves lo de PM
--------  ---------17-15---15-15-15-|     es solo 2 veces
--12-x10  13-15-17------------------|  X2 but the second you see what the PM
--------  --------------------------|     is only 2 times
--------  --------------------------|
                            PM PM PM


------------------------------------|
------------------------------------|
------------------------------------|
--12--14--15----15-14-12-10---------|
------------------------------------|
------------------------------------|

------------------------------------|
------------------------------------|
------------------------------------|
--12-14-15-14-12-10-----------------|
------------------------------------|
------------------------------------|

-------------------------|
-------------------------|
-------------------------|
---12-14-15-14-12--------|
-------------------------|
-------------------------|

------------------------|
------------------------|
------------------------|  x2
---12-10-12-14-12-10----|
------------------------|
------------------------|

------------------------|
------------------------|
-12-9-----12-11-15-12---|
------------------------|
------------------------|
------------------------|

----------------------------|
----------------------------|
----------------------------|
--12---10---9------12---10--|
--12---10---9------12---10--|
--10---8----7------10---8---|

--------------|
--------------|
--------- x14-|
--12----------|
--12----------|
--10----------|

tab dedicada para los hermanitos crew
ia que no nos veremos
los quiero mensos
Tap to rate this tab
# A B C D E F G H I J K L M N O P Q R S T U V W X Y Z