Song name
# A B C D E F G H I J K L M N O P Q R S T U V W X Y Z

Alesana - Better Luck Next Time Prince Charming Acoustic tab

Band: Alesana
Song: Better Luck Next Time, Prince Charming (Acoustic)
cd: Where Myth Fades To Legend
tuning: Drop D

ok so me and my band were just sitting around listening to Alesana and we started
this song on acoustic and we made a version. we play with three guitars just like 
and
it wasnt for Wenkz then we wouldnt of known how to play this song in the first place so 
you!!!!! :] ur tab rocks!

INTRO: 0:00

Guitar 1: (play till verse)
e|-----------------------------------|
B|-----------------------------------|
G|--7-5p0-3p0-2p0-7-5p0-3p2p0--------|
D|----------------------------3-5----|
A|-----------------------------------|
D|-----------------------------------|

Guitar 2 & 3  (x2)
e|-----------------------------------|
B|-----------------------------------|
G|-----------------------------------|
D|--55----55----1~---33----33----11--|
A|--55----55----1~---33----33----11--|
D|--55----55----1~---33----33----11--|


VERSE 1: 0:22

All three guitars
e|----------------------------------------------------------|
B|----------------------------------------------------------|
G|----------------------------------------------------------|
D|--555-5--555-5--555-5--555-5--333-3--333-3--333-3--333-3--|
A|--555-5--555-5--555-5--555-5--333-3--333-3--333-3--333-3--|
D|--555-5--555-5--555-5--555-5--333-3--333-3--333-3--333-3--|
    ...    ...    ...    ...    ...    ...    ...    ...

e|----------------------------------------------------------|
B|----------------------------------------------------------|
G|----------------------------------------------------------|
D|--111-1--111-1--111-1--111-1--000-0--000-0--111-1--111-1--|
A|--111-1--111-1--111-1--111-1--000-0--000-0--111-1--111-1--|
D|--111-1--111-1--111-1--111-1--000-0--000-0--111-1--111-1--|
    ...    ...    ...    ...    ...    ...    ...    ...

PRE-CHORUS 0:42

Guitar 1:
e|------|
B|------|
G|--12--| (x36)
D|------|
A|------|
D|------|

Guitar 2:
e|------|
B|------|
G|--10--| (x36)
D|------|
A|------|
D|------|

Guitar 3:
e|-----------------------------------------------------|
B|------------------5----------------------------------|
G|----5-----5-----5---6-----3-----5--7--9-----3-----5--|
D|---5-----3-----3---------3-----5-----------3-----5---|
A|--3-----3-----3---------1-----3-----------1-----3----|
D|-----------------------------------------------------|

THEN all three guitars
e|----------------|
B|-10-9-9h10p9----|
G|-------------11-|
D|----------------|
A|----------------|
D|----------------|


CHORUS: 0:57

Guitar 1: (x well im not sure just try and play it with the song)
e|-------------------------------|
B|---6-5-5h6p5----6-5-5h6p5------|
G|-------------7------------5-7--|
D|-------------------------------|
A|-------------------------------|
D|-------------------------------|

Guitar 2 & 3
e|-------------------------------------------------------------------|
B|-------------------------------------------------------------------|
G|-------------------------------------------------------------------|
D|---88888888--1010101010101010--1212121212121212--1212121212121212--|
A|---88888888--1010101010101010--1212121212121212--1212121212121212--|
D|---88888888--1010101010101010--1212121212121212--1212121212121212--|


VERSE 2: 1:14
Guitar 2 & 3
e|----------------------------------------------------------|
B|----------------------------------------------------------|
G|------------------------------------------------------3b~~|
D|--11-111-11-111--55-555-5-1-3--11-111-11--55-555-5-1------| (x2)
A|--11-111-11-111--55-555-5-1-3--11-111-11--55-555-5-1------|
D|--11-111-11-111--55-555-5-1-3--11-111-11--55-555-5-1------|
       ...    ...     ...           ...        ...

Guitar 1: (this comes in after guitar 2 & 3 played ^ that one time)
e|---------------------------------------------------7/9----|
B|--------8---------------------------8--------8/10---------|
G|--6h7p6---7-6-7---7---5---3---6h7p6---7-6-7---------------|
D|----------------5---3---1---------------------------------|
A|----------------------------------------------------------|
D|----------------------------------------------------------|


CHORUS 2: 1:38

Guitar 1: (x well im not sure just try and play it with the song)
e|-------------------------------|
B|---6-5-5h6p5----6-5-5h6p5------|
G|-------------7------------5-7--|
D|-------------------------------|
A|-------------------------------|
D|-------------------------------|

Guitar 2 & 3:
e|-------------------------------------------------------------------|
B|-------------------------------------------------------------------|
G|-------------------------------------------------------------------|
D|---88888888--1010101010101010--1212121212121212--1212121212121212--|
A|---88888888--1010101010101010--1212121212121212--1212121212121212--|
D|---88888888--1010101010101010--1212121212121212--1212121212121212--|


BREAKDOWN: (Come and claim your queen!) 1:54

Guitar 1 & 2:
e|------------------10/12\--|
B|----------9/11/12---------|
G|--9/11/13-----------------|
D|--------------------------|
A|--------------------------|
D|--------------------------|

Guitar 3:
e|--------------------------|
B|--------------------------|
G|--------------------------|
D|--88-10-7-----------------|
A|--88-10-7-----------------|
D|--88-10-7-----------------|


BRIDGE 1:57

Guitar 1 & 2: (x alot)      <(after thats played twice GTR 2 plays this)
e|---------------------------|-----------------------------|
B|-------------------6h8-----|-----------------------------|
G|-----------7-7-5h7---------|--1111111111111--------------|
D|---5h7-5h7-----------------|--1111111111111--------------|
A|---------------------------|--1111111111111--------------|
D|---------------------------|--1111111111111--------------|
                                .............

Guitar 3: (x2)
e|---------------------------------------------------------------------|
B|---------------------------------------------------------------------|
G|---------------------------------------------------------------------|
D|---88888888-1010101010101010-00-00-00-00-000000-00-00-00-00-0000-8-7-|
A|---88888888-1010101010101010-00-00-00-00-000000-00-00-00-00-0000-8-7-|
D|---88888888-1010101010101010-00-00-00-00-000000-00-00-00-00-0000-8-7-|


PRE-CHORUS 2: 2:27

Guitar 1:
e|------|
B|------|
G|--12--| (x36)
D|------|
A|------|
D|------|

Guitar 2:
e|------|
B|------|
G|--10--| (x36)
D|------|
A|------|
D|------|

Guitar 3:
e|-----------------------------------------------------|
B|------------------5----------------------------------|
G|----5-----5-----5---6-----3-----5--7--9-----3-----5--|
D|---5-----3-----3---------3-----5-----------3-----5---|
A|--3-----3-----3---------1-----3-----------1-----3----|
D|-----------------------------------------------------|

THEN all three guitars
e|----------------|
B|-10-9-9h10p9----|
G|-------------11-|
D|----------------|
A|----------------|
D|----------------|


CHORUS 3: 2:41

Guitar 1: (x well im not sure just try and play it with the song)
e|-------------------------------|
B|---6-5-5h6p5----6-5-5h6p5------|
G|-------------7------------5-7--|
D|-------------------------------|
A|-------------------------------|
D|-------------------------------|

Guitar 2 & 3: (x2)
e|-------------------------------------------------------------------|
B|-------------------------------------------------------------------|
G|-------------------------------------------------------------------|
D|---88888888--1010101010101010--1212121212121212--1212121212121212--|
A|---88888888--1010101010101010--1212121212121212--1212121212121212--|
D|---88888888--1010101010101010--1212121212121212--1212121212121212--|


ENDING: 3:16

Guitar 1 & 2:
e|------------------10/12\--|
B|----------9/11/12---------|
G|--9/11/13-----------------|
D|--------------------------|
A|--------------------------|
D|--------------------------|

Guitar 3:
e|--------------------------|
B|--------------------------|
G|--------------------------|
D|--88-10-7-----------------|
A|--88-10-7-----------------|
D|--88-10-7-----------------|


Well thats it i hope u liked it! :D listen to the song for strumming patterns cuz its
hard. uhm... when me and my band video tape this we'll put it on youtube.com and i'll put
link on here so u can see us play it!! PEACE OUT!!

| / slide up    |
| \ slide down  |
| b bend        |
| ~ let it ring |
| . palm mute   |
| h hammer-on   |
| p pull-off    |
Tap to rate this tab
# A B C D E F G H I J K L M N O P Q R S T U V W X Y Z