Song name
# A B C D E F G H I J K L M N O P Q R S T U V W X Y Z

Alesana - Sweetheart You Are Sadly Mistaken tab

-------------------------------------------------------------------------------
	                 Sweetheart, You're Sadly Mistaken - Alesana
-------------------------------------------------------------------------------
Tabbed by: Ross Reynald T. Cabanganan

Email:ciden_13@yahoo.com/rosscabanganan@yahoo.com


Hi to everyone! This is my second tab. This song is so hard to tab.
i know some parts are wrong but well, i'm not a great guitar player.
so please enjoy and please rate... :) rock n roll!


note: please follow the song pattern if you're confused... thanks... :)
      again please rate... :)

†---------------†
| /  slide up   |
| \  slide down |
| h  hammer-on  |
| ~  vibrato    |
†---------------†



Tuning: Drop D

Intro:

guitar 1:

e|--------1-----------1------------1------------0----------------------------|
B|------3---(4x)----3----(4x)----3---(4x)-----3----(4x)----------------------|
G|----2-----------3------------0------------2--------------------------------|3X
D|---------------------------------------------------------------------------|
A|---------------------------------------------------------------------------|
D|---------------------------------------------------------------------------|

guitar 2:

e|---------------------------------------------------------------------------|
B|----13---------------------------------------------------------------------|
G|-------14------------------------------------------------------------------|
D|----------15----12---12h14-----9-10-9-10-9---12---14-14--------------------|
A|---------------------------------------------------------------------------|
D|---------------------------------------------------------------------------|

e|---------------------------------------------------------------------------|
B|----13-----------------------------------------13--------------------------|
G|-------14-----------------------------------------14-----------------------|
D|----------15----12---12h14-----9-10-9-10-9-----------15-----9-10-9---------|
A|---------------------------------------------------------------------------|
D|---------------------------------------------------------------------------|

e|---------------------------------------------------------------------------|
B|----13---------------------------------------------------------------------|
G|-------14------------------------------------------------------------------|
D|----------15----12---12h14-----9-10-9-10-9---12---14-14--------------------|
A|---------------------------------------------------------------------------|
D|---------------------------------------------------------------------------|


e|---------------------------------------------------------------------------|
B|----13-----------------------------------------13--------------------------|
G|-------14-----------------------------------------14-----------------------|
D|----------15----12---12h14-----9-10-9-10-9-----------15-----12-14-12--10---|
A|---------------------------------------------------------------------------|
D|---------------------------------------------------------------------------|

guitar 1

e|---------------------------------------------------------------------------|
B|---------------------------------------------------------------------------|
G|---------------------------------------------------------------------------|
D|----12~---10~---12~---7~---------------------------------------------------|
A|----12~---10~---12~---7~---------------------------------------------------|
D|----12~---10~---12~---7~---------------------------------------------------|

guitar 2

e|---------------------------------------------------------------------------|
B|---------------------------------------------------------------------------|
G|----10~--10\-9~------------------------------------------------------------|2X
D|----8~---8\--7~------------------------------------------------------------|
A|----8~---8\--7~------------------------------------------------------------|
D|---------------------------------------------------------------------------|

guitar 2

verse:

   Mark my words this night is far from its end...
e|---------------------------------------------------------------------------|
B|---------------------------------------------------------------------------|
G|---------------------------------------------------------------------------|
D|---------------------------------------------------------------------------|
A|---------------------------------------------------------------------------|
D|---------------------------------------------------------------------------|

e|---------------------------------------------------------------------------|
B|----------------------8-0---------------------------------------8\---------|
G|----7-0-9-0-10-0-9-0-------10-0-9-0-7-0-----7-0-9-0-10-0-9-0---------------|
D|---------------------------------------------------------------------------|
A|---------------------------------------------------------------------------|
D|---------------------------------------------------------------------------|

e|---------------------------------------------------------------------------|
B|----------------------8-0--------------------------------------------------|
G|----7-0-9-0-10-0-9-0-------10-0-9-0-7-0-----7-0-9-0-10-0-9-0---------------|
D|---------------------------------------------------------------------------|
A|---------------------------------------------------------------------------|
D|---------------------------------------------------------------------------|

guitar 1

   spare me your threats and your useless remarks Go ahead, I dare you!
   Take one step closer to this gap baby! I'll show you what I mean!
   I can't let fear get the best of me right now...
e|---------------------------------------------------------------------------|
B|---------------------------------------------------------------------------|
G|---------------------------------------------------------------------------|
D|----12121212121212\-----10101010101010\----88888888888\---777777777777-----|
A|----12121212121212\-----10101010101010\----88888888888\---777777777777-----|
D|----12121212121212\-----10101010101010\----88888888888\---777777777777-----|

guitar 2

   Close your eyes and let your mind escape into a world of dreams,
   I won't wake you...
e|----10---------------------------------------------------------------------|(many times)
B|-------10------------------------------------------------------------------|
G|---------------------------------------------------------------------------|
D|---------------------------------------------------------------------------|
A|---------------------------------------------------------------------------|
D|---------------------------------------------------------------------------|

guitar 1

   Close your eyes and keep them shut the next part
   isn't going to be a very pretty sight...
e|---------------------------------------------------------------------------|
B|---------------------------------------------------------------------------|
G|---------------------------------------------------------------------------|
D|----888888/---10101010\---777777/---888888---------------------------------|
A|----888888/---10101010\---777777/---888888---------------------------------|
D|----888888/---10101010\---777777/---888888---------------------------------|

e|---------------------------------------------------------------------------|
B|---------------------------------------------------------------------------|
G|---------------------------------------------------------------------------|
D|----0--0--0000000--0--0----------------------------------------------------|
A|----0--0--0000000--0--0----------------------------------------------------|
D|----0--0--0000000--0--0----------------------------------------------------|

guitar 2

e|---------------------------------------------------------------------------|
B|---------------------------------------------------------------------------|
G|----7--7--7777777--7--7----------------------------------------------------|
D|----7--7--7777777--7--7----------------------------------------------------|
A|----5--5--5555555--5--5----------------------------------------------------|
D|---------------------------------------------------------------------------|

chorus

guitars 1&2

   Forget about tonight, tomorrow will be here so soon
   And we'll be busy singing, "The wicked witch is dead!
   "Once upon a time seems so like a fairy tale, I guess
   For us it's true
e|---------------------------------------------------------------------------|
B|---------------------------------------------------------------------------|
G|---------------------------------------------------------------------------|
D|----8888888/---1010101010/---1212121212\---8888888-------------------------|2x
A|----8888888/---1010101010/---1212121212\---8888888-------------------------|
D|----8888888/---1010101010/---1212121212\---8888888-------------------------|

guiatr 2

   For us it's true...
e|---------------------------------------------------------------------------|
B|----9b---------------------------------------------------------------------|
G|----9b--9-10-7-------------------------------------------------------------|
D|---------------------------------------------------------------------------|
A|---------------------------------------------------------------------------|
D|---------------------------------------------------------------------------|

guitar 1

   Who's laughing now?
   Blood pours from her dry mouth as she begs for mercy
   Oh, how she screams!
   If you think you'll win my forgiveness
   Awww, sweetheart, you're sadly mistaken!
   You shouldn't have brought us! You shouldn't have hurt us!
   You have not one clue what you've started but trust me
   You'll know when I'm finished!
e|---------------------------------------------------------------------------|
B|---------------------------------------------------------------------------|
G|---------------------------------------------------------------------------|
D|----0~--0~--0--111--0~--0~--0--111-----------------------------------------|
A|----0~--0~--0--111--0~--0~--0--111-----------------------------------------|
D|----0~--0~--0--111--0~--0~--0--111-----------------------------------------|

guitar 2

e|---------------------------------------------------------------------------|
B|---------------------------------------------------------------------------|
G|----9h10--7--9h10--7--9h10-------------------------------------------------|2X
D|---------------------------------------------------------------------------|
A|---------------------------------------------------------------------------|
D|---------------------------------------------------------------------------|

guitar 1

   Close your eyes and keep them shut the next part
   isn't going to be a very pretty sight...
e|---------------------------------------------------------------------------|
B|---------------------------------------------------------------------------|
G|---------------------------------------------------------------------------|
D|----888888/---10101010\---777777/---888888---------------------------------|
A|----888888/---10101010\---777777/---888888---------------------------------|
D|----888888/---10101010\---777777/---888888---------------------------------|

e|---------------------------------------------------------------------------|
B|---------------------------------------------------------------------------|
G|---------------------------------------------------------------------------|
D|----0--0--0000000--0--0----------------------------------------------------|
A|----0--0--0000000--0--0----------------------------------------------------|
D|----0--0--0000000--0--0----------------------------------------------------|

guitar 2

e|---------------------------------------------------------------------------|
B|---------------------------------------------------------------------------|
G|----7--7--7777777--7--7----------------------------------------------------|
D|----7--7--7777777--7--7----------------------------------------------------|
A|----5--5--5555555--5--5----------------------------------------------------|
D|---------------------------------------------------------------------------|

Then repeat chorus.

guitar 1

   You'd better run faster than that
   I know you're feeling scared but so am I...
e|---------------------------------------------------------------------------|
B|---------------------------------------------------------------------------|
G|---------------------------------------------------------------------------|
D|----000--000--000--000---888-777-888-10-8-7-888888/--10101010--------------|2X
A|----000--000--000--000---888-777-888-10-8-7-888888/--10101010--------------|
D|----000--000--000--000---888-777-888-10-8-7-888888/--10101010--------------|

guitar 1 

   Close your eyes...
e|---------------------------------------------------------------------------|
B|---------------------------------------------------------------------------|
G|---------------------------------------------------------------------------|
D|----8~--10~--7~--8~--------------------------------------------------------|4X
A|----8~--10~--7~--8~--------------------------------------------------------|
D|----8~--10~--7~--8~--------------------------------------------------------|

guitar 2

e|----10---------------------------------------------------------------------|
B|-------10------------------------------------------------------------------|(many times)
G|---------------------------------------------------------------------------|
D|---------------------------------------------------------------------------|
A|---------------------------------------------------------------------------|
D|---------------------------------------------------------------------------|

guitar 1

e|---------------------------------------------------------------------------|
B|---------------------------------------------------------------------------|
G|---------------------------------------------------------------------------|
D|----0--0--0000000--0--0----------------------------------------------------|
A|----0--0--0000000--0--0----------------------------------------------------| 
D|----0--0--0000000--0--0----------------------------------------------------|

guitar 2

e|---------------------------------------------------------------------------|
B|---------------------------------------------------------------------------|
G|----7--7--7777777--7--7----------------------------------------------------|
D|----7--7--7777777--7--7----------------------------------------------------|
A|----5--5--5555555--5--5----------------------------------------------------|
D|---------------------------------------------------------------------------|

Then chorus.

guitar 1

   Look who's laughing now!
   Blood pours from her dry mouth as she begs for mercy
   If you think you'll win my forgiveness
   Awww. sweetheart, you're sadly mistaken!
   (It's time, baby!)

e|---------------------------------------------------------------------------|
B|---------------------------------------------------------------------------|
G|---------------------------------------------------------------------------|
D|----0~--0~--0--111--0~--0~--0--111---0~------------------------------------|
A|----0~--0~--0--111--0~--0~--0--111---0~------------------------------------|
D|----0~--0~--0--111--0~--0~--0--111---0~------------------------------------|

guitar 2

e|---------------------------------------------------------------------------|
B|---------------------------------------------------------------------------|
G|----9h10--7--9h10--7--9h10-----0~------------------------------------------|2X
D|-------------------------------0~------------------------------------------|
A|-------------------------------0~------------------------------------------|
D|---------------------------------------------------------------------------|



Thats it! enjoy! Please Rate! for comments and suggestion just email me... thanks!
god bless!

If there's any mistake in the tab,
don’t hesitate to correct me: ciden_13@yahoo.com/rosscabanganan@yahoo.com



===============================================================================
Tap to rate this tab
 
# A B C D E F G H I J K L M N O P Q R S T U V W X Y Z