Song name
# A B C D E F G H I J K L M N O P Q R S T U V W X Y Z

Alesana - This Is Usually The Part Where People Scream tab

alright, iv noticed no one has posted a this is usually the part where people scream
tab so my and my friend are trying to tab out the song. iv posted all that i know so far
if anyone has the lead to the first verse of any other lead part that i didnt post let 
know id love to work with you.

Intro Guitar 1
e|---------------------------------------------------------------------------|
B|------------------------x2----------------------------------x2-------------|
G|-7p09p90p10-0-7p07-9-10------7p09p90p10-0---10p010p0-7h9-------------------|
D|---------------------------------------------------------------------------|
A|---------------------------------------------------------------------------|
D|---------------------------------------------------------------------------|

Guitar 2 ( chords )
e|---------------------------------------------------------------------------|
B|---------------------------------------------------------------------------|
G|---------------------------------------------------------------------------|
D|-0-----3-----5----0--------------------------------------------------------|
A|-0-----3-----5----0--------------------------------------------------------|
D|-0-----3-----5----0--------------------------------------------------------|

Verse 1 Guitar 2
e|---------------------------------------------------------------------------|
B|---------------------------------------------------------------------------|
G|---------------------------------------------------------------------------|
D|-0`---3`--5`----000-000000-------------------0000000-----------------------|
A|-0`---3`--5`----000-000000-------------------0000000-----------------------|
D|-0`---3`--5`----000-000000-------------------0000000-----------------------|
                      ******                   *******
Pre-Chorus Guitar 2 ( Chords )
e|---------------------------------------------------------------------------|
B|---------------------------------------------------------------------------|
G|---------------------------------------------------------------------------|
D|--8888888888--101010101010--777777-----------------------------------------|
A|--8888888888--101010101010--777777-----------------------------------------|
D|--8888888888--101010101010--777777-----------------------------------------|

Chorus is same as pre chorus
Chorus guitar 1
e|---15----------15----------------------------------------------------------|
B|-----17--15-------16-------------------------------------------------------|
G|------------16-------------------------------------------------------------|
D|---------------------------------------------------------------------------|
A|---------------------------------------------------------------------------|
D|---------------------------------------------------------------------------|

pre verse i think haha it goes you may thing youve won but i promise you its not over

e|---------------------------------------------------------------------------|
B|---------------------------------------------------------------------------|
G|---------------------------------------------------------------------------|
D|-x-------------------------------------------------------------------------|
A|-x-slide-15-then--up-to-1-again--------------------------------------------|
D|-x-------------------------------------------------------------------------|
Tap to rate this tab
 
# A B C D E F G H I J K L M N O P Q R S T U V W X Y Z