Song name
# A B C D E F G H I J K L M N O P Q R S T U V W X Y Z

Alesana - Sweetheart Youre Sadly Mistaken tab

Artist: Alesana
Song:   Sweetheart, You're Sadly Mistaken 
Tabbed by: Paul Anthonie Antoc
Address:  Mt.View,Mariveles,Bataan,Philippines

Drop D Tuning

Guitar 1:
e|------------------------------------------------------|
B|----6--6--6--6--6--6--6--6--6--6--6--6--5--5--5--5----|
G|---7--7--7--7--7--7--7--7--7--7--7--7--7--7--7--7-----| 3x
D|--7--7--7--7--8--8--8--8--5--5--5--5--7--7--7--7------|
A|------------------------------------------------------|
D|------------------------------------------------------|

Guitar 2:                                                       Ends with:   
e|--5------------------------5-----------------5---------|     ---------|
B|---6--5-5/6---------5/6-6---6--5-5/6-----------6-5-5---|     ---------|
G|----7-------5-5/7-7----------7-------5-5/7-7------5-5--| 2x  ----5~---|
D|-------------------------------------------------------|     ---------|
A|-------------------------------------------------------|     ---------|
D|-------------------------------------------------------|     ---------|

Guitar 3:
e|--8------------------------------8----------------------8---------|
B|---10---8-8/10-----------8/10-8---10---8-8/10------------10-8-8---|
G|-----10--------9-9/10-10------------10--------9-9/10-10------9-9--| 2x
D|------------------------------------------------------------------| 
A|------------------------------------------------------------------|
D|------------------------------------------------------------------|

Ends With:
e|-------|
B|-------|
G|--10~--|
D|-------|
A|-------|
D|-------|


Thank you.. XOXO
Tap to rate this tab
# A B C D E F G H I J K L M N O P Q R S T U V W X Y Z