Guitaretab - guitar tabs
Song name
# A B C D E F G H I J K L M N O P Q R S T U V W X Y Z

Alesana - Apology tab

Alesana-Apology
     This is my first tab So it might not be great but better than the other Apology 
tabs in Ultimate guitar so ya:
 Intro
Guitar 1
 e|---------------|
 B|---------------|
 G|---------------|
 D|--5~--7~--9~~--|X4
 A|--5~--7~--9~~--|
 D|--5~--7~--9~~--|

Guitar 2
 e|------------5---|
 B|--7----5--------|
 G|-----0----0----0|X30 around there its hard to count
 D|----------------|
 A|----------------|
 D|----------------|

   YOUR EVERYTHING TO ME!
   Verse
  Guitar 1
 e|-------------------------------------------------------|
 B|-------------------------------------------------------|
 G|-------------------------------------------------------|
 D|--555555-777777-999999-999999--------------------------|X3
 A|--555555-777777-999999-999999--------------------------|
 D|--555555-777777-999999-999999--------------------------|


 Guitar 2
   Lead Riff 1
 e|--------------------|       |--5--------|
 B|--------------------|       |--5---8-7--|X4
 G|-4p0-6p0-7p0--------|X7 Then|-----------|
 D|--------------------|       |-----------|
 A|--------------------|       |-----------|
 D|--------------------|       |-----------|

  Guitar 1

  |---------------|
  |---------------|
  |---------------|
  |-555555--777777|
  |-555555--777777|
  |-555555--777777|

   Guitar 1
    Verse Riff 2
   |---------------------------------|
   |---------------------------------|
   |---------------------------------|
   |9-9-9-9-9-9-9-5-5-5-5-5-7-7-7-7-7|X2  <-- Strum these chords
   |9-9-9-9-9-9-9-5-5-5-5-5-7-7-7-7-7|
   |9-9-9-9-9-9-9-5-5-5-5-5-7-7-7-7-7|
[ Tab from: http://www.guitaretab.com/a/alesana/144177.html ]
    Guitar 2
   |----------|  On the 15th time play |---------|
   |----------|                        |---------|
   |-4p0p6p0p7|X14                     |-4-6-7-9b|
   |----------|                        |---------|
   |----------|                        |---------|
   Chorus
   Guitar 1
  |--------------------------------------------------|
  |--------------------------------------------------|
  |--------------------------------------------------|
  |-9-9-9-9-9-9-9-7-7-7-7-7-7-4-4-4-4-4-4-5-5-5-5-5-5|
  |-9-9-9-9-9-9-9-7-7-7-7-7-7-4-4-4-4-4-4-5-5-5-5-5-5|
  |-9-9-9-9-9-9-9-7-7-7-7-7-7-4-4-4-4-4-4-5-5-5-5-5-5|

  Guitar 2

 |-------5-------------|----5-0-2h3----|
 |----5-----8-7-5--X2--|3-5---------X4-|X2 altogether
 |-7-------------------|---------------|
 |---------------------|---------------|
 |---------------------|---------------|
 |---------------------|---------------|

  Guitar 2
 |-----5-------------5-------|
 |---5----8-7-5----5----8-7-5|
 |-7-------------7-----------|
 |---------------------------|
 |---------------------------|
 | --------------------------|

  Verse X 1


 |-----0~|
 |-----0~|
 |-6~5~0~|
 |-6~5~0~|
 |-8~7~--|
 |-------|

  Chorus X 2
  Intro X1
  Verse X1

  Bridge
  Guitar 1
  |----------|
  |----------|
  |----------|
  |9---------|
  |9-X15-----|
  |9---------|
   Guitar 1
  |-------------------|
  |-------------------|
  |-------------------|
  |7------4------5----|
  |7 X15--4-X15--5-X15|
  |7------4------5----|

   Guitar 2
   Tremelo Pick each note(play each note alot really fast)

   |-------------------------------|
   |-------------------------------|
   |-------------------------------|
   |-------------------------------|
   |11-12-14-12-9-11-12-12-8-8-9-11|
   |-------------------------------|


   Guitar 1
   |------------------------------|
   |------------------------------|
   |------------------------------|
   |9------7------4------5--------|
   |9-X 15-7-X 15-4-X 15-5-X 15---|
   |9------7------4------5--------|

   Guitar 2
   Tremelo Picking
   |-------------------------------------------|
   |-------------------------------------------|
   |-------------------------------------------|
   |-------------------------------------------|
   |11-12-14-12-9-12-14-12-11-12-14-12-8-8-9-11|
   |-------------------------------------------|


  Chorus X4

 thats about it if you have any questions/problems or something to fix email me
at sneakynacho619@hotmail.com
Related for Apology tab
Apology chords by Alesana