Song name
# A B C D E F G H I J K L M N O P Q R S T U V W X Y Z

Alesana - This Conversation Is Over tab

Alesana	  : This Coversation is Over
Tabbed by : Hariz05
Tunning	  : Standard(EAEGBe)

Most Alesana’s songs are in Dropped D tunning.
But you can actualy play this song easily with standard tunning.
Here you go!

[INTRO]

Guitar 1
e|----------------------------------------------------------------------|
B|----------------------------------------------------------------------|
G|-6666666666666666-----------------------------------------------------|
D|-6666666666666666—7777777777777777-9999999999999999-----------------6-|
A|-4444444444444444-7777777777777777-9999999999999999-----------------6-|
E|------------------5555555555555555-7777777777777777-----------------4-|
PM ................ ................ ................

Guitar 2
e|---------------------------------0-4-0-2-0-4-0-2-0-4-0-2-0-4-0-2-0--0-|
A|--------------------------------------------------------------------4-|
D|--------------------------------------------------------------------4-|
G|----------------------------------------------------------------------|
B|----------------------------------------------------------------------|
E|----------------------------------------------------------------------|

[MAIN RIFF/CHORUS]

Guitar 1
e|----------------------------------------------------------------------|
B|----------------------------------------------------------------------|
G|-6666666666666666-----------------------------------------------------|
D|-6666666666666666—7777777777777777-9999999999999999-6666666666666666--|
A|-4444444444444444-7777777777777777-9999999999999999-6666666666666666--|
E|------------------5555555555555555-7777777777777777-4444444444444444--|

Guitar 2
e|---------------------------------|---------------------------------|
B|-5-0-4-0-5-0-4-0-5-0-4-0-5-0-4-0-|-5-0-7-0-5-0-7-0-5-0-7-0-5-0-7-0-|
G|---------------------------------|---------------------------------|
D|---------------------------------|---------------------------------|
A|---------------------------------|---------------------------------|
E|---------------------------------|---------------------------------|

e|---------------------------------|---------------------------------|
A|-5-0-4-0-5-0-4-0-5-0-4-0-5-0-4-0-|-5-4-5-7-5--5-4-5---4------------|
D|---------------------------------|------------------4--------------|
G|---------------------------------|---------------------------------|
B|---------------------------------|---------------------------------|
E|---------------------------------|---------------------------------|

Guitar 3
e|---------------------------------|-------7-------------------------|
A|---------------------------------|-9-7-9---9--9-7-5---4------------|
D|-13------14-----13----/16/11-----|---------------------------------|
G|----x16-----x8-----x4--------x8--|---------------------------------|
B|-11------12-----11----/14/-9-----|---------------------------------|
E|---------------------------------|---------------------------------|

 
[VERSE 1] x2

Guitar 1
e|------------------------------------------------------------|
A|------------------------------------------------------------|
D|-----------------4444-----------666-666-4----666-666-4------|
G|-7777------------4444-----------666-666-4----666-666-4------|
B|-7777------------2222-----------444-444-2----444-444-2------|
E|-5555-------------------------------------------------------|
PM                                ... ...          ... ...


Guitar 2 and 3
e|---------------------------------------7--------------7-6-9-|
A|------545-7-5-45------5040507-5--5-4-5---7-5--5-4-5-7-------|
D|------------------------------------------------------------|
G|------------------------------------------------------------|
B|------------------------------------------------------------|
E|------------------------------------------------------------|
PM                      .......
PM                      .......

[CHORUS] x2

Guitar 1
e|---------------------------------------------------------------------|
B|---------------------------------------------------------------------|
G|-6666666666666666----------------------------------------------------|
D|-6666666666666666—7777777777777777-9999999999999999-6666666666666666-|
A|-4444444444444444-7777777777777777-9999999999999999-6666666666666666-|
E|------------------5555555555555555-7777777777777777-4444444444444444-|

Guitar 2
e|---------------------------------|---------------------------------|
B|-5-0-4-0-5-0-4-0-5-0-4-0-5-0-4-0-|-5-0-7-0-5-0-7-0-5-0-7-0-5-0-7-0-|
G|---------------------------------|---------------------------------|
D|---------------------------------|---------------------------------|
A|---------------------------------|---------------------------------|
E|---------------------------------|---------------------------------|

e|---------------------------------|---------------------------------|
A|-5-0-4-0-5-0-4-0-5-0-4-0-5-0-4-0-|-5-4-5-7-5--5-4-5---4------------|
D|---------------------------------|------------------4--------------|
G|---------------------------------|---------------------------------|
B|---------------------------------|---------------------------------|
E|---------------------------------|---------------------------------|

Guitar 3
e|---------------------------------|-------7-------------------------|
A|---------------------------------|-9-7-9---9--9-7-5---4------------|
D|-13------14-----13----/16/11-----|---------------------------------|
G|----x16-----x8-----x4--------x8--|---------------------------------|
B|-11------12-----11----/14/-9-----|---------------------------------|
E|---------------------------------|---------------------------------|



 
[VERSE 2] x2

Guitar 1
|----------------|---------|---------------|-------------|
|----------------|---------|---------------|-4-5-4-7-5-4-|
|--66-----66-----|---------|---------------|-------------|
|--66-----66-----|-6-666-6-|-77-----77-----|-------------|
|--44-----44-----|-6-666-6-|-77-----77-----|-------------|
|----------------|-4-444-4-|-55-----55-----|-------------|

Guitar 2 and 3
e|----7----------|---------|---------------|-------------|
A|------9----9-7-|---------|---9-7-------7-|-4-5-4-7-5-4-|
D|---------------|---------|-----------9---|-------------|
G|---------------|---------|---------------|-------------|
B|---------------|---------|---------------|-------------|
E|---------------|---------|---------------|-------------|
                         
[VERSE 3] x2

Guitar 1
e|------------------------------------------------------------|
A|------------------------------------------------------------|
D|-----------------4444-----------666-666-4----666-666-4------|
G|-7777------------4444-----------666-666-4----666-666-4------|
B|-7777------------2222-----------444-444-2----444-444-2------|
E|-5555-------------------------------------------------------|
PM                                ... ...          ... ...


Guitar 2 and 3
e|---------------------------------------7--------------7-----|
A|------545-7-5-45------5040507-5--5-4-5---7-5--5-4-5-7---7-5-|
D|------------------------------------------------------------|
G|------------------------------------------------------------|
B|------------------------------------------------------------|
E|------------------------------------------------------------|
PM                      .......

“This conversation is over...”
e|--------------------------------------|
A|--------------------------------------|
D|-----4*--66-66-66-66-4-66-66-66-66----|
G|-7*--4*--66-66-66-66-4-66-66-66-66-77-|
B|-7*--2*--44-44-44-44-2—44-44-44-44-77-|
E|-5*--------------------------------55-|


Repeat [CHORUS]

[BRIDGE]

Guitar 2
|---------------------------------------------------------------------------|
|-10---10---10---10---9---9---9---9---10---10---10---10---9---9---9---9-----|
|----9----9----9----9---9---9---9---9----9----9----9----9---9---9---9---9---|
|---------------------------------------------------------------------------|
|---------------------------------------------------------------------------|
|---------------------------------------------------------------------------|

|---------------------------------------------------------------------------|
|-12---10---9---12---10---9---10---9---12---10---9---12---10---9---10---9---|
|----9----9---9----9----9---9----9-—-9----9---9----9----9---9----9—---9---9-|
|---------------------------------------------------------------------------|
|---------------------------------------------------------------------------|
|---------------------------------------------------------------------------|

Guitar 1
e|----------------------------------------------------------------|
A|----------------------------------------------------------------|
D|----------------44-444-444-444----------------------------------|
G|-77-777-777-777-44-444-444-444-66-666-666-666-666-666-666-666---|
B|-77-777-777-777-22-222-222-222-66-666-666-666-666-666-666-666---|
E|-55-555-555-555----------------44-444-444-444-444-444-444-444---|
PM .. ... ... ... .. ... ... ... .. ... ... ... ... ... ... ...
e|----------------------------------------------------------------|
A|----------------------------------------------------------------|
D|----------------44-444-444-444-66666666666666666666666666666666-|
G|-77-777-777-777-44-444-444-444-66666666666666666666666666666666-|
B|-77-777-777-777-22-222-222-222-44444444444444444444444444444444-|
E|-55-555-555-555-------------------------------------------------|
PM .. ... ... ... .. ... ... ... ............................

Repeat [CHORUS]

-END-

Please Vote, and don't hesitate to correct me :)
Tap to rate this tab
# A B C D E F G H I J K L M N O P Q R S T U V W X Y Z