Song name
# A B C D E F G H I J K L M N O P Q R S T U V W X Y Z

Alesana - What Goes Around Comes Around tab

Alesana-What Goes Around...Comes Around
This Is Tabs For Justin Timberlake Song That Alesana
Took On The Punk Goes Pop 2009 And Made It Way Way Better

Drop D (DADGBE)

Intro
Guitar 1
E|--------------------------------------------------------------|
B|---10-8-10----------------------------------------------------|
G|------------9-\-7-7-------------------------------------------|
D|--------------------------------------------------------------|
A|--------------------------------------------------------------|
D|--------------------------------------------------------------|
								x3
E|--------------------------------------------------------------|
B|---10-8-10-8-10-10-8-10---------------------------------------|
G|--------------------------------------------------------------|
D|--------------------------------------------------------------|
A|--------------------------------------------------------------|
D|--------------------------------------------------------------|
                                                                 x2

(All That 3 Times)

Intro
Guitar 2 (Comes In On The Second  Time)

E|--------------------------------------------------------------|
B|--------------------------------------------------------------|
G|--------------------------------------------------------------|
D|--7-------10-------5------------------------------------------|
A|--7-------10-------5------------------------------------------|
D|--7-------10-------5------------------------------------------|

Guitar 2
E|--------------------------------------------------------------|
B|--------------------------------------------------------------|
G|--------------------------------------------------------------|
D|--10--X--X--X--X--X--X--X---7-5----7-X-X-X-X-10-X-X-X-X-5-7-5-|
A|--10--X--X--X--X--X--X--X---7-5----7-X-X-X-X-10-X-X-X-X-5-7-5-|
D|--10--X--X--X--X--X--X--X---7-5----7-X-X-X-X-10-X-X-X-X-5-7-5-|


Guitar 1 (....Your Love Went Away..)
E|--------------------------------------------------------------|
B|--------------------5-----------------------------------------|
G|---------5-------------7-7--4---------------------------------|
D|--5-\-7-----6-\-7---------------7-5-7--4----------------------|
A|--------------------------------------------------------------|
D|--------------------------------------------------------------|
								x2

Back To Into For Guitar 1
and Guitar 2 Plays


E|--------------------------------------------------------------|
B|--------------------------------------------------------------|
G|--------------------------------------------------------------|
D|---7-7-----10-10-------5-5------------------------------------|
A|---7-7-----10-10-------5-5------------------------------------|
D|---7-7-----10-10-------5-5------------------------------------|

There one or two more  riffs that im   trying to  understanf and i will upload a new 
when ill
know them   ut that pretty much the  main riffs
your truley max^_^
Tap to rate this tab
# A B C D E F G H I J K L M N O P Q R S T U V W X Y Z