Song name
# A B C D E F G H I J K L M N O P Q R S T U V W X Y Z

Alesana - Nero Decay tab

INTRO (G2)
|--------------------------------------------------------------------------|
|------6---------------6-----------6-----------6------------6--------------|
|--6------6--------6------6----6-------6---6------6-----6-----6------------|
|-8--8--8-----x2-7---7--7----6---6---6---4---4---4----5---5--5-------------|
|-----------------------x2--------x2----------x2------------x2-------------|
|--------------------------------------------------------------------------|
VERSE(g1)
|---------------------------|
|---------------------------|
|----6-----8----6-----8-8---|
|--8---8-6----8---8-6-------| [x10]
|---------------------------|
|---------------------------|
(g1)
|----------------------------------------------------|
|------------------------------------------11--------|
|--10--8--5--8/10-----13--10---10-10-10-10-10--------|
|--8---6--3--6/8---8--11--8----8--8--8--8--8---------|
|------------------6---------------------------------|
|----------------------------------------------------|
                               .  .  .  .
CHORUS(g1)

|---------------------------------------------------------------------|
|---------------------------------------------------------------------|
|--10-10-10-10-10-10-11-11-11-11-11-11-8-8-8-8-8-8--11--11--10--10----|
|--10-10-10-10-10-10-11-11-11-11-11-11-8-8-8-8-8-8--11--11--10--10----|
|--8--8--8--8--8--8--9--9--9--9--9--9--6-6-6-6-6-6--9---9---8---8-----|
|---------------------------------------------------------------------|

|---------------------------------------------------------------------|
|---------------------------------------------------------------------|
|--10-10-10-10-10-10-11-11-11-11-11-11-8-8-8-8-8-8--13--13--11--11----|
|--10-10-10-10-10-10-11-11-11-11-11-11-8-8-8-8-8-8--13--13--11--11----|
|--8--8--8--8--8--8--9--9--9--9--9--9--6-6-6-6-6-6--11--11--9---9-----|
|---------------------------------------------------------------------|

|---------------------------------------------------------------|
|---------------------------------------------------------------|
|--10-10-10-10-10-10-8-8-8-8-8-8-5-5-5-5-5-5-5--10-10--8--8-----|
|--10-10-10-10-10-10-8-8-8-8-8-8-5-5-5-5-5-5-5--10-10--8--8-----|
|--8--8--8--8--8--8--6-6-6-6-6-6-3-3-3-3-3-3-3--8--8---6--6-----|
|---------------------------------------------------------------|

|------------------------------------------------------------------------|
|------------------------------------------------------------------------|
|-6--6-6-6----8--8-8-8---6--6-6-6---8--8-8-8---10-10-10-10-10-10-10-10---|
|-6--6-6-6----8--8-8-8---6--6-6-6---8--8-8-8---10-10-10-10-10-10-10-10---|
|-4--4-4-4----6--6-6-6---4--4-4-4---6--6-6-6-----------------------------|
|------------------------------------------------------------------------|

|--------------------------------------------------------------------------------------|
|--------------------------------------------------------------------------------------|
|--10-10-10-10-10---10-10-10-10-10--10-10-10-10--10-10-10-10--10-10-10-10-10-10--------|
|--10-10-10-10-10---10-10-10-10-10--10-10-10-10--10-10-10-10--10-10-10-10-10-10--------|
|--8--8--8--8--8----8--8--8--8--8---8--8--8--8---8--8--8--8---8--8--8--8--8-8--8-------|
|--------------------------------------------------------------------------------------|
                                                              .  .  .  .  . .  .

|------------------------------------------------------------------------|
|------------------------------------------------------------------------|
|--10-10-10-10-10-10---10---10-10101010-10-11---10-1010101010--10-10-11--|
|--10-10-10-10-10-10---10---10-10101010-10-11---10-1010101010--10-10-11--|
|--8--8--8--8--8--8----8----8--8-8-8-8--8--9----8--8-8-8-8-8---8--8--9---|
|------------------------------------------------------------------------|
                               . . . .             . . . . .

|--------------------------------------------------------------------------------------|
|--------------------------------------------------------------------------------------|
|--10-10-10-10-10---10-10-10-10-10--10-10-10-10--10-10-10-10--10-10-10-10-10-10--------|
|--10-10-10-10-10---10-10-10-10-10--10-10-10-10--10-10-10-10--10-10-10-10-10-10--------|
|--8--8--8--8--8----8--8--8--8--8---8--8--8--8---8--8--8--8---8--8--8--8--8-8--8-------|
|--------------------------------------------------------------------------------------|
                                                              .  .  .  .  . .  .

|-------------------------------------------------------------------|
|-------------------------------------------------------------------|
|--10-10-10-10-10-10---10---10-10101010-10-11---10-1010101010--10---|
|--10-10-10-10-10-10---10---10-10101010-10-11---10-1010101010--10---|
|--8--8--8--8--8--8----8----8--8-8-8-8--8--9----8--8-8-8-8-8---8----|
|-------------------------------------------------------------------|
                               . . . .             . . . . .
(g1)
|----------------------------------------------------|
|------------------------------------------11--------|
|--10--8--5--8/10-----13--10---10-10-10-10-10--------|
|--8---6--3--6/8---8--11--8----8--8--8--8--8---------|
|------------------6---------------------------------|
|----------------------------------------------------|
                               .  .  .  .
CHORUS(g1)

|---------------------------------------------------------------------|
|---------------------------------------------------------------------|
|--10-10-10-10-10-10-11-11-11-11-11-11-8-8-8-8-8-8--11--11--10--10----|
|--10-10-10-10-10-10-11-11-11-11-11-11-8-8-8-8-8-8--11--11--10--10----|
|--8--8--8--8--8--8--9--9--9--9--9--9--6-6-6-6-6-6--9---9---8---8-----|
|---------------------------------------------------------------------|

|---------------------------------------------------------------------|
|---------------------------------------------------------------------|
|--10-10-10-10-10-10-11-11-11-11-11-11-8-8-8-8-8-8--13--13--11--11----|
|--10-10-10-10-10-10-11-11-11-11-11-11-8-8-8-8-8-8--13--13--11--11----|
|--8--8--8--8--8--8--9--9--9--9--9--9--6-6-6-6-6-6--11--11--9---9-----|
|---------------------------------------------------------------------|

|---------------------------------------------------------------|
|---------------------------------------------------------------|
|--10-10-10-10-10-10-8-8-8-8-8-8-5-5-5-5-5-5-5--10-10--8--8-----|
|--10-10-10-10-10-10-8-8-8-8-8-8-5-5-5-5-5-5-5--10-10--8--8-----|
|--8--8--8--8--8--8--6-6-6-6-6-6-3-3-3-3-3-3-3--8--8---6--6-----|
|---------------------------------------------------------------|

|------------------------------------------------------------------------|
|------------------------------------------------------------------------|
|-6--6-6-6----8--8-8-8---6--6-6-6---8--8-8-8---10-10-10-10-10-10-10-10---|
|-6--6-6-6----8--8-8-8---6--6-6-6---8--8-8-8---10-10-10-10-10-10-10-10---|
|-4--4-4-4----6--6-6-6---4--4-4-4---6--6-6-6-----------------------------|
|------------------------------------------------------------------------|

|------------------------------------------------------------13--11---11/13--9--11---|
|----14-----16-----14-----13-----14-----16-----14-----13-----------------------------|
|--13--13-13--13-13--13-13--13-13--13-13--13-13--13-13--13-13------------------------|
|------------------------------------------------------------------------------------|
|------------------------------------------------------------------------------------|
|------------------------------------------------------------------------------------|

|------------------------------------------------------------13--11---11/13--9-11--|
|----14-----16-----14-----13-----14-----16-----14-----13---------------------------|
|--13--13-13--13-13--13-13--13-13--13-13--13-13--13-13--13-13----------------------|
|----------------------------------------------------------------------------------|
|----------------------------------------------------------------------------------|
|----------------------------------------------------------------------------------|
(g1)
|-----------------------------------------------------------------------------------|
|-----------------------------------------------------------------------------------|
|--6-6-6-6-6-6-6-6-6-5-5-5-5-5-5-5-5-5-6-6-6-6-6-6-6-6-6--6--6--6--6--5--5--5--5----|   [x4]
|--6-6-6-6-6-6-6-6-6-5-5-5-5-5-5-5-5-5-6-6-6-6-6-6-6-6-6--6--6--6--6--5--5--5--5----|
|--4-4-4-4-4-4-4-4-4-3-3-3-3-3-3-3-3-3-4-4-4-4-4-4-4-4-4--4--4--4--4--3--3--3--3----|
|-----------------------------------------------------------------------------------|

|------------------------|                            |---|
|--------6----------6----|(g2)  in,the end          |6----|(g2)
|----6-------6---6-----6-|                            |6--|
|--8---8---8---7---7--7--| [x8]                     |8----|
|------------------------|                            |---|
|------------------------|                            |---|

It' s my verison 4 this song i some changes . : )

CHECK MY VIDEO

http://www.youtube.com/watch?v=HO2AkhmkAz0

TAB.
GUITARPLAYERVAMPIRE
ENJOY.!!
Tap to rate this tab
 
# A B C D E F G H I J K L M N O P Q R S T U V W X Y Z