Song name
# A B C D E F G H I J K L M N O P Q R S T U V W X Y Z

Alesana - And They Call This Tragedy tab

Artist: Alesana
Song: And They Call This Tragedy
Album: Where Myth Fades to Legend

Tuning: Drop D
DADGBE

There's a mixture of both lead and rhythm
but about 95% of this tab consists of lead
I'm missing only a couple of lead parts,
mainly after the intro...its pull offs mainly
I'll put it as soon as i get it, I PROMISE
(unlike many people who say the will but never do it)

Ok, so the chord at the end is just a weird chord i made up
you can either play only the last three 7's (lead) or the
top three 5's (rhythm) or both (which I guess sounds alright
I really haven't tried it


e|------7-------7-------7-------7-------7----9-7-7h9p7-----7----7-7-7-7-7-7-7-7-|
B|----7---7---7---7---7---7---7---7---7--7---------------7---7--7-7-7-7-7-7-7-7-|
G|--7-------7-------7-------7-------7------------------7--------7-7-7-7-7-7-7-7-|
D|--------------------------------------------------------------5-5-5-5-5-5-5-5-|
A|--------------------------------------------------------------5-5-5-5-5-5-5-5-|
D|--------------------------------------------------------------5-5-5-5-5-5-5-5-|

e|------------------------------------------------------------------------|
B|------------------------------------------------------------------------|
G|------------------------------------------------------------------------|
D|---5----------7--------4------------------------------------------------|
A|---5--x16-----7--x8----4--x8--------------------------------------------|
D|---5----------7--------4------------------------------------------------|

e|-------------------------------------------------------------------------|
B|-------5-----5-----5-5p0-7p0-8p0-7p0-----5-----5-----5-5p0-3p0-2p0-3p0-|
G|-------6-----6-----6----------------------6-----6-----6------------------|
D|---9-9---9-9---9-9--------------------5-5---5-5---5-5--------------------|
A|---9-9---9-9---9-9--------------------5-5---5-5---5-5--------------------|
D|---9-9---9-9---9-9--------------------5-5---5-5---5-5--------------------|

e|--------------------------------------------------------------------|
B|-------5-----5-----5--5p0-3p0-2p0-3p0-----5-----5-----5-------------|
G|-------6-----6-----6----------------------6-----6-----6-------------|
D|---9-9---9-9---9-9--------------------5-5---5-5---5-5----5-5-7-7----|
A|---9-9---9-9---9-9--------------------5-5---5-5---5-5----5-5-7-7----|
D|---9-9---9-9---9-9--------------------5-5---5-5---5-5----5-5-7-7----|

e|-------------------------------------------------------------------------|
B|-------------------------------------------------------------------------|
G|-------------------------------------------------------------------------|
D|--5-----7-----4-----9-----7-----5-----7~---------------------------------|
A|--5-----7-----4-----9-----7-----5-----7~---------------------------------|
D|--5-----7-----4-----9-----7-----5-----7~---------------------------------|

e|-------------------------------------------------------------------------|
B|-------------------------------------------------------------------------|
G|-4p0-6p0-4p0-6p0-4p0-6p0-6-6-7-------4p0-6p0-4p0-6p0-6-6-7---------------|
D|-------------------------------------------------------------------------|
A|----------------repeat-3-times-this-entire-riff--------------------------|
D|-------------------------------------------------------------------------|

e|---------------------------------------------------------------------|
B|-------------------------12---12---12---12------or-finish-in-----6-6-|
G|---11---11----9-----9---------------------------instead-of-the---9-9-|
D|-----9----9-----9-----9----9----9----9----9-----last-two-notes-------|
A|---|-palm-mute-these----|--------------------------------------------|
D|---------------------------------------------------------------------|

e|------------------------------------------|
B|---10---10---|-7---7---|-7---7---7---7----|
G|------7----7-|---7---7-|---4---4---4---4--|     play the entire
D-------------------------------------------|     thing twice
A|------------------------------------------|
D|------------------------------------------|

e|---------------------------------------|-------------------------------------|
B|---------------------------------------|-------------------------------------|
G|------------12---11~-|---------12-11---|------------12---11-|--------12-11---| x2
D|--9-11-12-9----9-----|-9-11-12-------9-|--9-11-12-9----9----|-9-11---------9-|
A|---------------------------------------|-------------------------------------|
D|---------------------------------------|-------------------------------------|

e|------------------------------------------------------------------------------|
B|------------12p0-10p0-8p0-15p0-14p0-12p0-|-----------12---10-|--------12-10---|
G|--9-11-12-9------------------------------|-9-11-12-9----9----|-9-11---------9-| x2
D|------------------------------------------------------------------------------|
A|------------------------------------------------------------------------------|
D|------------------------------------------------------------------------------|

e|------------------------|
B|------------------------|
G|------------------------|
D|---9-11-12--x6--911~---|
A|------------------------|
D|------------------------|

e|-------------------------------------------------------------------------|
B|-------------------------------------------------------------------------|
G|-4p0-6p0-4p0-6p0-4p0-6p0-6-6-7-------4p0-6p0-4p0-6p0-6-6-7---------------|
D|-------------------------------------------------------------------------|
A|----------------repeat-3-times-this-entire-riff--------------------------|
D|-------------------------------------------------------------------------|

e|---------------------------------------------------------------------|
B|-------------------------12---12---12---12------or-finish-in--->-6-6-|
G|---11---11----9-----9---------------------------instead-of-the---9-9-|
D|-----9----9-----9-----9----9----9----9----9-----last-two-notes-------|
A|--|-palm-mute-these----|---------------------------------------------|
D|---------------------------------------------------------------------|


e|------------------------------------------------------------------------|
B|------------------------------------------------------------------------|
G|-------------------------------0-0-9-0-0-7-0-0--------------------------|
D|----0-0-11-0-0-9-0-0-7--5-5-5--*-*---*-*---*-*-5---5-5--5---------------|
A|----*-*----*-*---*-*----5-5-5------------------5---5-5--5---------------|
D|------------------------5-5-5------------------5---5-5--5---------------|


e|-----------------------------------------------------------------------|
B|-----------------------------------------------------------------------|
G|-------------------------------0-0-9-0-0-7-0-0-6-----------------------|
D|----0-0-11-0-0-9-0-0-7--5-5-5--*-*---*-*---*-*---5-5-5-5---------------|
A|----*-*----*-*---*-*----5-5-5--------------------5-5-5-5---------------|
D|------------------------5-5-5--------------------5-5-5-5---------------|


e|-------------------------------------------------------------------------|
B|------11----11----11-----------------------------------------------------|
G|---------14----14----14---many-times-------------------------------------|
D|-------------------------------------------------------------------------|
A|-------------------------------------------------------------------------|
D|-------------------------------------------------------------------------|

Repeat the following 2 bars twice

e|-----------------------------------------------------------------|
B|--------11-------11-------11-------------------------------------|
G|--------14-------14-------14--10-10-10-10-12-12-12-12------------|
D|-------------------------------x--x--x--x--x--x--x--x------------|
A|--0-0-0----0-0-0----0-0-0------8--8--8--8-10-10-10-10------------|
D|--0-0-0----0-0-0----0-0-0----------------------------------------|
    * * *    * * *    * * *

e|------------------------------------------------------------------------------|
B|--------11-------11-------11--------------------------------------------------|
G|--------14-------14-------14--10-10-10-10-12-12-12-12-14-14-14-14-12-12-12-12-|
D|-------------------------------x--x--x--x--x--x--x--x--x--x--x--x--x--x--x--x-|
A|--0-0-0----0-0-0----0-0-0------8--8--8--8-10-10-10-10-12-12-12-12-10-10-10-10-|
D|--0-0-0----0-0-0----0-0-0-----------------------------------------------------|
    * * *    * * *    * * *

e|-------------------------------------------------------------------------|
B|-------------------------------------------------------------------------|
G|-------------------------------------------------------------------------|
D|---17-17-17-15-15-15-14-14----17-17-17-15-15-15---14---15--7~------------|
A|-----------------------------------------------------------7~------------|
D|-----------------------------------------------------------7~------------|


e|---------------------------------------------------------------------|
B|--------11-----------------11------------------11--------------------|
G|--------14-----------------14------------------14--10-10-10-10-12-12-|
D|----------------------------------------------------x--x--x--x--x--x-|
A|--0-0-0----0-0-0-0---0-0-0----0-0-0-0---0-0-0-------8--8--8--8-10-10-|
D|--0-0-0----0-0-0-0---0-0-0----0-0-0-0---0-0-0------------------------|
    * * *    * * * *   * * *    * * * *   * * *

e|------------------------------------------------------------------------------|
B|--------11--------------------------------------11----------------------------|
G|--------14--------------------------------------14----10----12----14----12----|
D|-------------------------------------------------------x-x4--x-x4--x-x4--x-x2-|
A|--0-0-0----0-0-0-0---0-0-0------0-0-0-0---0-0-0--------8----10----12----10----|
D|--0-0-0----0-0-0-0---0-0-0--3*--0-0-0-0---0-0-0-------------------------------|
    * * *    * * * *   * * *      * * * *   * * *


e|---------------------------------------------------------------------|
B|--------11-----------------11------------------11--------------------|
G|--------14-----------------14------------------14--10-10-10-10-12-12-|
D|----------------------------------------------------x--x--x--x--x--x-|
A|--0-0-0----0-0-0-0---0-0-0----0-0-0-0---0-0-0-------8--8--8--8-10-10-|
D|--0-0-0----0-0-0-0---0-0-0----0-0-0-0---0-0-0------------------------|
    * * *    * * * *   * * *    * * * *   * * *

e|--------------------------------------------------------------------------------|
B|--------11-----------------11---------------------11----------------------------|
G|--------14-----------------14---------------------14----10----12----14----12----|
D|---------------------------------------------------------x-x4--x-x4--x-x4--x-x2-|
A|--0-0-0----0-0-0-0---0-0-0----0-0-0-0---0-0-0------------8----10----12----10----|
D|--0-0-0----0-0-0-0---0-0-0----0-0-0-0---0-0-0-----------------------------------|
    * * *    * * * *   * * *    * * * *   * * *
Tap to rate this tab
 
# A B C D E F G H I J K L M N O P Q R S T U V W X Y Z