Song name
# A B C D E F G H I J K L M N O P Q R S T U V W X Y Z

Alesana - The Thespian tab

there is shawn part
esta es la parte de shawn
me la saque a oido

intro
Baby! why are...
---------------------------------------------------------|
---------------------------------------------------------|
---------------------------------------------------------|
--121212---12-1212-121212-777---7--77-777-888---8-88-888-|
--121212---12-1212-121212-777---7--77-777-888---8-88-888-|
--121212---12-1212-121212-777---7--77-777-888---8-88-888-|
Darling! stop!
------------------------|
------------------------|
------------------------|
101010---10-1010-101010-|
101010---10-1010-101010-|
101010---10-1010-101010-|

Night falls...
-----------------|
-----------------|
5----------------|
5x8-7---8---10---|  2x
7---7x8-8x8-10x8-|
----7---8---10---|

Tell me I'm forgiven...
-------------------------------|
-------------------------------|
-------------------------------|
12-----------12-------------12-|
12-----------12-------------12-|
12-----------12-------------12-|

No one deserves to live like this!
--------------------------------|
8/10-8-6---5-----6/8-6----------|
------------------------5---7---|
--------------------------------|
--------------------------------|
--------------------------------|

Tell me I'm forgiven saay..
-------------------------------|
-------------------------------|
-------------------------------|
12-----------12-------------12-|
12-----------12-------------12-|
12-----------12-------------12-|


No one deserves to live like this!
------------------------------------|
8/10-8-6---5-----6/8-6--------------|
------------------------5-----5/7---|
------------------------------------|
------------------------------------|
------------------------------------|

I touch your lips ...
-----------------|
-----------------|
5----------------|
5x8-7---8---10---|  2x
7---7x8-8x8-10x8-|
----7---8---10---|

Night as dark...
-------------|
-------------|
-------------|
0-0-0--000---|
0-0-0--000---|
0-0-0--000---|
x x x  xxx
sets the scene...
----------------|
----------------|
----------------|
000-8-000-10----|
000-8-000-10----|
000-8-000-10----|
xxx   xxx
ightning nips...
-------------|
-------------|
-------------|
0-0-0--000---|
0-0-0--000---|
0-0-0--000---|
x x x  xxx
 I race home
----------------|
----------------|
----------------|
000-8-000-10----|
000-8-000-10----|
000-8-000-10----|
xxx   xxx
Wearily I stagger towards
-------------|
-------------|
-------------|
0-0-0--000---|
0-0-0--000---|
0-0-0--000---|
x x x  xxx
the song of her pale voice
----------------|
----------------|
----------------|
000-8-000-10----|
000-8-000-10----|
000-8-000-10----|
xxx   xxx
Demons jeer my attempt
-------------|
-------------|
-------------|
0-0-0--000---|
0-0-0--000---|
0-0-0--000---|
x x x  xxx
 to be free
----------------|
----------------|
----------------|
000-8-000-10----|
000-8-000-10----|
000-8-000-10----|
xxx   xxx
Tell me I'm forgiven saay .... same
                          igual que el primero
I touch your lips ...

despues viene un punteo en guitarra
y es lo mismo que en el coro la guitarra ritmica

----------------|
-11/15--13--10--|
----------------| algo asi pero pronto lo sacare
----------------|
----------------|
----------------|
Tap to rate this tab
 
# A B C D E F G H I J K L M N O P Q R S T U V W X Y Z